Message To Bears

Farewell Stars

Message To Bears

tabs

by  JOAOEWERTON

save to print version add songbook text version e-mail correct tuner
chordsukulelecavacokeyboardtabbassdrumsharmonicaflute Guitar Pro
close

there isn't a video lesson for this song

chords

Farewell Stars

	  		

Tuning: DGCGBD ( 
Capo on the 6th Fret) 

Riff 1 
D|-----------0-----------------------0h2h0--------------------------------------------------------| 
B|-----0-----------0-----0-----0---------------1--0-----0-----0h1--0--0----0-----0-----0-----0----| 
G|--------0----(0)-----0-----------0---------0--------------0-----------0-----------0----------0--| 
C|--4-----------------------2-------------------------0-----------------------2-----------0-------| 
G|------------------------------------------------------------------------------------------------| 
D|------------------------------------------------------------------------------------------------| 

Riff 2 
D|---------------------------------------------------------------------------------| 
B|---0-----0h1--0-0-----0-----0h1--0---0-----0-----0h1--0---0-----0-----0h1--0--0--| 
G|-------0-------0-----------0-------0-----------0--------0----------0---------0---| 
C|---------------------------------------------------------------------------------| 
G|-2--------------------2--------------------0------------------0------------------| 
D|---------------------------------------------------------------------------------| 

Riff 3 
D|-----------------------------------------------------------| 
B|-----------------------------------------------------------| 
G|--------0-----2h4--0-----------------0-----2h4--0----------| 
C|--0--2-----2---------------2v--0--2-----2------------------| 
G|-------------------5h4--------------------------5h4--0-----| 
D|------------------------------------------------0-----0----| 

************************************ 

| /   slide up 
| \   slide down 
| h   hammer-on 
| p   pull-off 
| ~   vibrato 
| +   harmonic 
| x   Mute note 
| b   Bend 
| pb  Pre-bend 
| br  Bend release 
| pbr Pre-bend release 
| brb Bend release bend 

************************************ 
		  

See also:

tabs Deep Purple - Demonds Eye tabs Deep Purple - Money Talks tabs Ira! - Eu Quero Sempre Mais (Com Pitty, intro) tabs Albert Hammond Jr - Holiday tabs Deep Purple - Smoke on the water (intro) tabs Deep Purple - Smoke on the Water (ver. 2)
e-chords

Other versions:

tabs Message To Bears - Farewell Stars
auto scroll beats size up size down change color hide chords drawings
tab show chords e-chords YouTube Clip e-chords hide all tabs e-chords go to top tab

share