Menki

Ventos na Cidade

Menki

tabs

save to print version add songbook text version e-mail correct tuner
chordsukulelecavacokeyboardtabbassdrumsharmonicaflute Guitar Pro
close

there isn't a video lesson for this song

chords

Ventos na Cidade

	  		Intro: 
 
Guitarra 1 (limpa): 
e|-------------------------------------|--------------------------------| 
B|-------------------------------------|-----1------1------1--------6---| 
G|-------------------------------------|---2------2------2------2/5-5---| 
D|-----3^0---2----------3^0---2---3/5--|-3------3------3------3---------| 
A|---0----------------0----------------|--------------------------------| 
D|-0-------0---0----0-------0---0------|--------------------------------| 
 
Guitarra 2 (com Distorção): 
e|-------------------------------------|--------------------------------| 
B|-------------------------------------|--------------------------------| 
G|-------------------------------------|--------------------------------| 
D|-------------------------------------|-3------5------7------10--------| 
A|-------------------------------------|--------------------------------| 
D|-------------------------------------|--------------------------------| 
 
PM |- - - - - - - - - - - - - - - - - - - - - - - - - - - - - - - - - - - - - - - - - - - - - - - | 
e|----------------------|------------------------|-----------------------|-----------------------| 
B|----------------------|------------------------|-----------------------|-----------------------| 
G|----------------------|------------------------|-----------------------|-----------------------| 
D|----------------------|------------------------|-----3-----------------|-----3-----------------| 
A|-5-5-3-5----3-5-3---3-|--5-5-3-5----3-5-3----3-|-0-1---1--0-1-3-0-1--0-|-0-1---1--0-1-3-0-1--3-| 
D|----------5-------0---|-----------5--------0---|-----------------------|-----------------------| 
 
 
Canto 1: Guitarra 1 
 
PM |- - - - - - - - - - - - - - - - - - - - - - - - - - - - - - - - - - - - - - - - - - - - - - - | 
e|----------------------|------------------------|-----------------------|-----------------------| \ 
B|----------------------|------------------------|-----------------------|-----------------------| |  
G|----------------------|------------------------|-----------------------|-----------------------| 3X 
D|----------------------|------------------------|-----3-----------------|-----3-----------------| | 
A|-5-5-3-5----3-5-3---3-|--5-5-3-5----3-5-3----3-|-0-1---1--0-1-3-0-1--0-|-0-1---1--0-1-3-0-1--3-| | 
D|----------5-------0---|-----------5--------0---|-----------------------|-----------------------| / 
 
Guitarra 2: 
 
e|--|--|--|--|--|--|--|--|--|--|---------------------------------------|-------------------------| 
B|--|--|--|--|--|--|--|--|--|--|---------------------------------------|-------------------------| 
G|--|--|--|--|--|--|--|--|--|--|-3-------------------------------------|-(3)---------------------| 
D|--|--|--|--|--|--|--|--|--|--|-3?(aumentando o volume gradativamente)|-(3)---------------------| 
A|--|--|--|--|--|--|--|--|--|--|-1-------------------------------------|-(1)---------------------| 
D|--|--|--|--|--|--|--|--|--|--|---------------------------------------|-------------------------| 
 
 
Ponte:  
e|-----------------|------------------|------------------|------------------|--------------------| 
B|-----------------|------------------|------------------|------------------|--------------------| 
G|--5-5-5/7--10/9--|--5-5-5/7?--10/9--|--5-5-5/3---10/9--|--5-5-5/3?--10/8--|--5-5-5/3----12/14--| 
D|-----------------|------------------|------------------|------------------|--------------------| 
A|--3-3-3/5?--8/7--|--3-3-3/5----8/7--|--3-3-3/1----8/7--|--3-3-3/1----8/7--|--3-3-3/1----10/12--| 
D|-----------------|------------------|------------------|------------------|--------------------| 
 
Canto2: 
 
e|----------------------|------------------------|-----------------------|-----------------------| \ 
B|----------------------|------------------------|-----------------------|-----------------------| |  
G|----------------------|------------------------|-----------------------|-----------------------| 2X 
D|----------------------|------------------------|-----3-----------------|-----3-----------------| | 
A|-5-5-3-5----3-5-3---3-|--5-5-3-5----3-5-3----3-|-0-1---1--0-1-3-0-1--0-|-0-1---1--0-1-3-0-1--3-| | 
D|----------5-------0---|-----------5--------0---|-----------------------|-----------------------| / 
 
 
 
 
 
Refrão: 
e|----------------|-----------------|----------------|----------------|-------|-------| \ 
B|----------6-6---|-----------6-6---|----------6-6---|-----------6-6--|--1--1-|-1--1--| | 
G|----------5-5---|-----------5-5---|----------5-5---|-----------5-5--|--3--3-|-3--3--| 2X 
D|--0-0-0---3-3---|--0--0-0---3-3---|--0-0-0---3-3---|--0--0-0---3-3--|--3--3-|-3--3--| | 
A|--0-0-0---------|--0--0-0---------|--0-0-0---------|--0--0-0--------|--1--1-|-1--1--| | 
D|--0-0-0---------|--0--0-0---------|--0-0-0---------|--0--0-0--------|-------|-------| / 
 
 
 
Ponte: 
 
e|-------|---------| 
B|-1-----|-(1)-----| 
G|-3-----|-(3)-----| 
D|-3-----|-(3)-----| 
A|-1-----|-(1)-----| 
D|-------|---------| 
 
 
Repete intro 
 
Canto 3: base 2X 
 
Refrão 2X 
 
Final: 
 
e|----------------| 
B|-1--------------| 
G|-3--------------| 
D|-3--------------| 
A|-1--------------| 
D|----------------| 

		  

See also:

tabs Reação em Cadeia - Os Dias (Intro) tabs Sandy & Júnior - Maria Chiquinha (acústico Mtv) tabs Roupa Nova - A Lenda (solo) tabs Papas da Língua - No Calor da Hora tabs Dragon Ball - Dragon Ball Gt tabs Felipe Dylon - Deixa Disso
e-chords

Other versions:

tabs Menki - Ventos na Cidade
auto scroll beats size up size down change color hide chords drawings
tab show chords e-chords YouTube Clip e-chords hide all tabs e-chords go to top tab

share