Meg Myers

After You

Meg Myers

tabs nolevel nolevel

by  ROBEPOIEL

save to print version add songbook text version e-mail correct tuner
chordsukulelecavacokeyboardtabbassdrumsharmonicaflute Guitar Pro
close

there isn't a video lesson for this song

chords

After You

	  		

Intro: 

Guitar 1: 

e|---2-2-2------------| 
B|---------4-4\5-4----| 
G|-4---------------4--|x12 
D|--------------------| 
A|--------------------| 
E|--------------------| 

Guitar 2(Cords): 

e|--2-2-2-2----x-x-x-----| 
B|--4-4-4-4----0-0-0-----| 
G|--4-4-4-4----1-1-1-----|x12 
D|--4-4-4-4----2-2-2-----| 
A|--2-2-2-2----2-2-2-----| 
E|--x-x-x-x----0-0-0-----| 

Pre Corus: 

Guitar 1: 

e|----4-2-0---| 
B|--4---------| 
G|------------|x9 
D|------------| 
A|------------| 
E|------------| 

Guitar 2(Cords): 

e|--0---x---x---0---0---x---0---0---------| 
B|--5---0---0---4---5---0---0---4---------| 
G|--6---1---3---4---6---1---5---4---------| 
D|--6---2---4---4---6---2---6---4---------| 
A|--0---2---4---0---0---2---6---0---------| 
E|--x---0---0---x---x---0---x---x---------| 

Corus: 

Guitar 1: 

e|---4-2-0---------------------------| 
B|---------4-5-4-2-0-5-4-2-0-4-0-0---| 
G|-----------------------------------|x8 
D|-----------------------------------| 
A|-----------------------------------| 
E|-----------------------------------| 

Guitar 2(Cords): 

e|---x-x-x-x--0-0-0-0--x-x-x-x--x-x-x-x-----| 
B|---4-4-4-4--5-5-5-5--0-0-0-0--2-2-2-2-----| 
G|---4-4-4-4--6-6-6-6--1-1-1-1--3-3-3-3-----|x4 
D|---6-6-6-6--6-6-6-6--2-2-2-2--4-4-4-4-----| 
A|---6-6-6-6--x-x-x-x--2-2-2-2--4-4-4-4-----| 
E|---x-x-x-x--x-x-x-x--0-0-0-0--x-x-x-x-----| 

Interlude: 

Guitar 2(Cords): 

e|----------------| 
B|---0---2---5----| 
G|---1---3---5----|x6 
D|---2---4---6----| 
A|---2---4---6----| 
E|---0---x---x----| 

Guitar 1: 

e|---11------------| 
B|------11--12-----| 
G|-----------------|x4 
D|-----------------| 
A|-----------------| 
E|-----------------| 

e|---11-11/9------9\14-----14/11-------| 
B|-------------------------------------| 
G|-------------------------------------|x4 
D|-------------------------------------| 
A|-------------------------------------| 
E|-------------------------------------| 

Repit Corus... 




************************************ 

| /   slid up 
| \   slid down 
| h   hammr-on 
| p   pull-off 
| ~   vibrato 
| +   harmonic 
| x   Mut not 
| b   Bnd 
| pb  Pr-bnd 
| br  Bnd rlas 
| pbr Pr-bnd rlas 
| brb Bnd rlas bnd 

************************************ 
		  

See also:

tabs Doa - Sexyest Girl tabs Deep Purple - Smoke on the water (intro) tabs Deep Purple - Highway Star tabs Albert Hammond Jr - Holiday tabs Deep Purple - Deep Purple - Smoke On The Water tabs Deep Purple - Ted The Mechanic
e-chords

Other versions:

tabs Meg Myers - After You tabs Blindside - After Youre Gone
auto scroll beats size up size down change color hide chords drawings
tab show chords e-chords YouTube Clip e-chords hide all tabs e-chords go to top tab

share with facebook