Medulla

Eterno Retorno

Medulla

tabs

by  HEBEALMEIDA

save to print version add songbook text version e-mail correct tuner
chordsukulelecavacokeyboardtabbassdrumsharmonicaflute Guitar Pro
close

there isn't a video lesson for this song

chords

Eterno Retorno

	  		Intro: 
E|-----------------------|-------------------------|--------------| 
B|--------3h4p3--------6-|-3h4p3-------3h4p3-------|-3h4p3--------| 
G|-----3---------3-------|--------3-----------3----|--------3-----|   (2x) 
D|--5---------------5----|-----------5-----------5-|-----------5--| 
A|-----------------------|-6-----------3-----------|--------------| 
E|--3--------------------|-------------------------|--------------| 

E|--------------| 
B|-----------3--| 
G|-----3--------| 
D|--5-----5-----| 
A|--------------| 
E|--------------| 

Verso: 
E|-----|--------|--------|--------| 
B|-----|-----6--|--------|--------| 
G|-----|--3-----|--3-----|--------| 
D|--5--|--------|-----3--|--5-----| 
A|-----|--------|--------|-----3--| 
E|-----|--------|--------|--------| 

Sei lá, quando ama tem 
Quando fica sem, 
Não sabe direito como respirar 

E as coisas que agora vem, ainda trazem, 
um pouco de chuva, um gosto de chuva 

A coragem que o guarda tem, 
quando prende alguém 
não serve pra nada, quando o amor chamar 
e o desespero que com a vida vem 
O amor vai além, o amor vai muito mais além 
E|--10h13--| 
B|---------| (14x) 
G|---------| 
D|---------| 
A|---------| 
E|---------| 

E|--8h10---| 
B|---------| (14x) 
G|---------| 
D|---------| 
A|---------| 
E|---------| 

Gm                           F 
Se os dias fossem como girassóis 
D#                       Cm 
e nada nos fizesse esquecer 
Gm                                 F 
se o mundo nos deixasse por um instante a sós 
D#                  Cm 
e o tempo parasse só nesse instante 
E|-----------------------|-------------------------|--------------| 
B|--------3h4p3--------6-|-3h4p3-------3h4p3-------|-3h4p3--------| 
G|-----3---------3-------|--------3-----------3----|--------3-----|   (2x) 
D|--5---------------5----|-----------5-----------5-|-----------5--| 
A|-----------------------|-------------------------|--------------| 
E|-----------------------|-------------------------|--------------| 

Se é mesmo a vida quem desata os nós 
e o medo dela não nos deixa entender 
O universo inteiro numa casca de noz 
Impõe a lei do eterno retorno 
E|----------------------------|---------------| 
B|-----11---------------------|---------------| 
G|---------12------10h12------|---------------| 
D|-------------12---------10--|---------------| 
A|-10-------------------------|--10/13--13\8--| 
E|----------------------------|---------------| 

Gm               F 
Mas, vem feito coice, 
                  D# 
Cabou-se o que era doce 
   Cm 
O vento sempre leva o que trouxe, 
Gm                     F 
mais dia, menos dia, alivia. 
       D#                            Cm 
E eu já nem sinto mais o cheiro dela 

Gm               F 
Mas, vem feito coice, 
                  D# 
Cabou-se o que era doce 
   Cm 
O vento sempre leva o que trouxe, 
Gm                     F 
mais dia, menos dia, alivia. 
       D#                            Cm 
E eu já nem sinto mais o cheiro dela 
Noite... 
E|-------10----------10----------13----------13----------10----------10----------10----------10-----| 
B|----11----11----11----11----11----11----11----11----11----11----11----11----10----10----10----10--| 
G|-12----------12----------12----------12----------12----------12----------12----------12-----------|  (2x) 
D|--------------------------------------------------------------------------------------------------| 
A|--------------------------------------------------------------------------------------------------| 
E|--------------------------------------------------------------------------------------------------| 

E|-------10----------10----------13----------13--15--| 
B|----11----11----11----11----11----11----12---------| 
G|-12----------12----------12----------12------------| 
D|---------------------------------------------------| 
A|---------------------------------------------------| 
E|---------------------------------------------------| 

( Gm  F  D#  Cm ) 
Sei lá, quando ama tem 
Quando fica sem. 
E|-----------------------|-------------------------|--------------| 
B|--------3h4p3--------6-|-3h4p3-------3h4p3-------|-3h4p3--------| 
G|-----3---------3-------|--------3-----------3----|--------3-----| 
D|--5---------------5----|-----------5-----------5-|-----------5--| 
A|-----------------------|-6-----------3-----------|--------------| 
E|--3--------------------|-------------------------|--------------| 

Se é mesmo a vida quem desata os nós 
(e o medo dela não nos deixa entender) 

O universo inteiro numa casca de noz 
Impõe a lei do eterno retorno 
E|----------------------------|---------------| 
B|-----11---------------------|---------------| 
G|---------12------10h12------|---------------| 
D|-------------12---------10--|---------------| 
A|-10-------------------------|--10/13--13\8--| 
E|----------------------------|---------------| 

Gm               F 
Mas, vem feito coice, 
                  D# 
Cabou-se o que era doce 
   Cm 
O vento sempre leva o que trouxe, 
Gm                     F 
mais dia, menos dia, alivia. 
       D#                            Cm 
E eu já nem sinto mais o cheiro dela 

Gm               F 
Mas, vem feito coice, 
                  D# 
Cabou-se o que era doce 
   Cm 
O vento sempre leva o que trouxe, 
Gm                     F 
mais dia, menos dia, alivia. 
       D#                            Cm 
E eu já nem sinto mais o cheiro dela 
Noite... 
		  

Full key step upFull key step up
Half key step upHalf key step up
Half key step downHalf key step down
Full key step downFull key step down
hide glossary

See also:

tabs Charlie Brown Jr. - Abrir Seus Olhos tabs Charlie Brown Jr. - o coro vai comer tabs Charlie Brown Jr. - Senhor do Tempo tabs Charlie Brown Jr. - Falar, Falar tabs Charlie Brown Jr. - Chicano skate nos cano (Ver.2) tabs Charlie Brown Jr. - Não é sério(ver.3)
e-chords

Other versions:

tabs Medulla - Eterno Retorno
auto scroll beats size up size down change color hide chords drawings
tab show chords e-chords YouTube Clip e-chords hide all tabs e-chords go to top tab

share