Meadow Island

Morning Came

Meadow Island

tabs

by  TARIKIKE

save to print version add songbook text version e-mail correct tuner
chordsukulelecavacokeyboardtabbassdrumsharmonicaflute Guitar Pro
close

there isn't a video lesson for this song

chords

Morning Came

	  		



Intro: 

2 times: 

e|-----------------------------------------------------------------| 
B|-------0-------0-------0-------0-------0-------0-------0-------0-| 
G|-----2---2---2-------2---2---2-------2---2---2-------2---2---2---| 
D|---2-------2-------2-------2-------2-------2-------2-------2-----| 
A|-0---------------0-----------------------------------------------| 
E|---------------------------------4---------------4---------------| 


verse 1: 

The sky            it's    always  gray now                and the 
e|---------------------------------------------0---------------0---| 
B|-------0-------0-------0-------0-------0-------0-------0-------0-| 
G|-----2---2---2-------2---2---2-------2---2-----------2---2-------| 
D|---2-------2-------2-------2-------2-------2-------2-------2-----| 
A|-0---------------0-----------------------------------------------| 
E|---------------------------------4---------------4---------------|  

   sun hides            behind the smoke clouds 
e|---------------------------------------------0---------------0---| 
B|-------0-------0-------0-------0-------0-------0-------0-------0-| 
G|-----2---2---2-------2---2---2-------2---2-----------2---2-------| 
D|---2-------2-------2-------2-------2-------2-------2-------2-----| 
A|-0---------------0-----------------------------------------------| 
E|---------------------------------4---------------4---------------| 



Chorus: 

F#m   Asus2/G#   Asus2 
                 you disappeared before the morning came 
F#m   Asus2/G#   Asus2 
                 we are the ones who see the light 
F#m   Asus2/G#   Asus2 
                 you are the one they've been waiting for 
F#m   Asus2/G# 



e|-------------0-------------------------------0---------------0---| 
B|-------0-------0-------0-------0-------0-------0-------0-------0-| 
G|-----2---2-----------2---2---2-------2---2-----------2---2-------| 
D|---2-------2-------2-------2-------2-------2-------2-------2-----| 
A|-0---------------0-----------------------------------------------| 
E|---------------------------------4---------------4---------------| 

e|---------------------------------------------0---------------0---| 
B|-------0-------0-------0-------0-------0-------0-------0-------0-| 
G|-----2---2---2-------2---2---2-------2---2-----------2---2-------| 
D|---2-------2-------2-------2-------2-------2-------2-------2-----| 
A|-0---------------0-----------------------------------------------| 
E|---------------------------------4---------------4---------------| 



verse 2: 

   escape              the endless winter                       and 
e|---------------------------------------------0---------------0---| 
B|-------0-------0-------0-------0-------0-------0-------0-------0-| 
G|-----2---2---2-------2---2---2-------2---2-----------2---2-------| 
D|---2-------2-------2-------2-------2-------2-------2-------2-----| 
A|-0---------------0-----------------------------------------------| 
E|---------------------------------4---------------4---------------| 

   hope                we find the shelter 
e|---------------------------------------------0---------------0---| 
B|-------0-------0-------0-------0-------0-------0-------0-------0-| 
G|-----2---2---2-------2---2---2-------2---2-----------2---2-------| 
D|---2-------2-------2-------2-------2-------2-------2-------2-----| 
A|-0---------------0-----------------------------------------------| 
E|---------------------------------4---------------4---------------| 


Chorus: 

F#m   Asus2/G#   Asus2 
                 you disappeared before the morning came 
F#m   Asus2/G#   Asus2 
                 we are the ones who see the light 
F#m   Asus2/G#   Asus2 
                 you are the one they've been waiting for 
F#m   Asus2/G#   Asus2 
                 you disappeared before the morning came 
F#m   Asus2/G#   Asus2 
F#m   Asus2/G#   Asus2 
F#m   Asus2/G# 



Outro: 

the sky            it's    always  gray now                and the 
e|-------------0-------------------------------0---------------0---| 
B|-------0-------0-------0-------0-------0-------0-------0-------0-| 
G|-----2---2-----------2---2---2-------2---2-----------2---2-------| 
D|---2-------2-------2-------2-------2-------2-------2-------2-----| 
A|-0---------------0-----------------------------------------------| 
E|---------------------------------4---------------4---------------|  

   sun hides            behind the smoke clouds 
e|---------------------------------------------0---------------0---| 
B|-------0-------0-------0-------0-------0-------0-------0-------0-| 
G|-----2---2---2-------2---2---2-------2---2-----------2---2-------| 
D|---2-------2-------2-------2-------2-------2-------2-------2-----| 
A|-0---------------0-----------------------------------------------| 
E|---------------------------------4---------------4---------------| 

   escape              the endless winter                       and 
e|---------------------------------------------0---------------0---| 
B|-------0-------0-------0-------0-------0-------0-------0-------0-| 
G|-----2---2---2-------2---2---2-------2---2-----------2---2-------| 
D|---2-------2-------2-------2-------2-------2-------2-------2-----| 
A|-0---------------0-----------------------------------------------| 
E|---------------------------------4---------------4---------------| 


hope we find home 
		  

Full key step upFull key step up
Half key step upHalf key step up
Half key step downHalf key step down
Full key step downFull key step down
auto scroll beats size up size down change color hide chords drawings
tab show chords e-chords YouTube Clip e-chords hide all tabs e-chords go to top tab

share