Mc Livinho

Cheia De Marra

Mc Livinho

tabs

by  GUSTSILVA

save to print version add songbook text version e-mail correct tuner
chordsukulelecavacokeyboardtabbassdrumsharmonicaflute Guitar Pro
close

there isn't a video lesson for this song

chords

Cheia De Marra

	  		E|--4---7-6-4--7-6-4--3-----| 
B|-----------------------4--| 
G|--------------------------| 
D|--------------------------| 
A|--------------------------| 
E|--------------------------| 

E|---------------------------| 
B|-4---7-6-4--7-6-4--6-------| 
G|---------------------------| 
D|---------------------------| 
A|---------------------------| 
E|---------------------------| 

Riff 2: 
E|-----------------------| 
B|-4-7-6-4-6-7-4-3--------| 
G|-----------------4-----| 
D|-----------------------| 
A|-----------------------| 
E|-----------------------| 

E|-4-7-6-4--3-4-6-7-4-----| 
B|------------------------| 
G|------------------------| 
D|------------------------| 
A|------------------------| 
E|------------------------| 
		  

auto scroll beats size up size down change color hide chords drawings
tab show chords e-chords YouTube Clip e-chords hide all tabs e-chords go to top tab

share