Matthew And The Atlas

I Will Remain

Matthew And The Atlas

tabs

by  FERNSANTANA

save to print version add songbook text version e-mail correct tuner
chordsukulelecavacokeyboardtabbassdrumsharmonicaflute Guitar Pro
close

there isn't a video lesson for this song

chords

I Will Remain

	  		

This song isn't actually picked, just has rather precise strumming, so make sure you use full chords when 
playing. That way, if you hit a "wrong" string, it will still be in the chord and will sound fine. If you 
want to fingerpick this song, like I do, play the exact notes written 

Tuning:Standard (EADGBe) 
 

INTRO 
e|-----------------|-------------------|-------------------|-------------------| 
B|-----------------|-------------------|-------------------|-------------------| 
G|-----------------|---0-----0---0---0-|---0-----0---0---0-|---0-----0---0---0-| 
D|-----------------|---0-----0---0---0-|---0-----0---0---0-|---0-----0---0---0-| 
A|----0h2--3---2p0-|-----0h2---3---2p0-|-----0h2---3---2p0-|-----0h2---3---2p0-| 
E|-3---------------|-3-----------------|-3-----------------|-3-----------------| 

verse 1 
   G                                     C                   G 
e|-------------------|-----------------|-------------------|-------------------| 
B|-------------------|-----------------|---1-----1---1---1-|-------------------| 
G|---0---0---0-----0-|---0---0---0---0-|---0-----0---0---0-|---0-----0---0---0-| x2 
D|---0---0---0-----0-|---0---0---0---0-|-----0h2---2p0-----|---0-----0---0---0-| 
A|-----2-------0h2---|-----2-------2---|-3-------------3---|-----0h2---3---2p0-| 
E|-3-------3---------|-3-------3-------|-------------------|-3-----------------| 
  Further from my ...                 ...road that sets......sun, 
  Waiting for my ...                ...return and ...   ...become, 
   Em                                      D/F#              G                   Em    C 
e|-------------------|-------------------|-----------------|-------------------|--------|---------------| 
B|-------------------|-------------------|-----------------|-------------------|-0------|---1-----------| 
G|---0-----0---0---0-|---0-----0---0---0-|---2---2---2---2-|---0-----0---0---0-|-0------|---0-----------| 
D|---2-----2---2---2-|---2-----2---2---0-|---0---0---0---0-|---0-----0---0---0-|-2------|------0h2p0----| 
A|-----0h2-------2---|-----0h2-------0---|-----------------|-----0h2---3---2p0-|-2------|-3-------------| 
E|-0---------0-------|-0---------0-------|-2---2---2---2---|-3-----------------|-0------|---------------| 
  Summer has not ...                    ...though my days....long,              Take....another song... 
   G                   G 
e|-------------------|-------------------| 
B|-------------------|-------------------| 
G|---0-----0---0---0-|---0-----0---0---0-| 
D|---0-----0---0---0-|---0-----0---0---0-| 
A|-----0h2---3---2p0-|-----0h2---3---2p0-| 
E|-3-----------------|-3-----------------| 
...sung. 

verse 2 
   G                                     C                   G 
e|-------------------|-----------------|-------------------|-------------------| 
B|-------------------|-----------------|---1-----1---1---1-|-------------------| 
G|---0---0---0-----0-|---0---0---0---0-|---0-----0---0---0-|---0-----0---0---0-| x2 
D|---0---0---0-----0-|---0---0---0---0-|-----0h2---2p0-----|---0-----0---0---0-| 
A|-----2-------0h2---|-----2-------2---|-3-------------3---|-----0h2---3---2p0-| 
E|-3-------3---------|-3-------3-------|-------------------|-3-----------------| 
   What of all...                     ...ones that...     ...door? 
...comfort in the...                  ...comfort...       ...floor? 
   Em                                      D/F#              G                   Em    C 
e|-------------------|-------------------|-----------------|-------------------|--------|-------------------| 
B|-------------------|-------------------|-----------------|-------------------|-0------|---1---------1-1-1-| 
G|---0-----0---0---0-|---0-----0---0---0-|---2---2---2---2-|---0-----0---0---0-|-0------|---0---------0-0-0-| 
D|---2-----2---2---2-|---2-----2---2---0-|---0---0---0---0-|---0-----0---0---0-|-2------|------0h2p0--------| 
A|-----0h2-------2---|-----0h2-------0---|-----------------|-----0h2---3---2p0-|-2------|-3-----------------| 
E|-0---------0-------|-0---------0-------|-2---2---2---2---|-3-----------------|-0------|-------------------| 
   Tell you...                      ...forget the ones... ...dear?...       ...I try to...mind is no... 
   G                   G 
e|-------------------|-------------------| 
B|-------------------|-------------------| 
G|---0-----0---0---0-|---0-----0---0---0-| 
D|---0-----0---0---0-|---0-----0---0---0-| 
A|-----0h2---3---2p0-|-----0h2---3---2p0-| 
E|-3-----------------|-3-----------------| 
...clear. 

BANJO SOLO -strumming- 
   G                         ?/F#      Em 
e|-----------------|-----------------|-----------------|-----------------| 
B|---0---0---0---0-|---0---0---0---0-|---0---0---0---0-|---0---0---0---0-| 
G|---0---0---0---0-|---0---0---0---0-|---0---0---0---0-|---0---0---0---0-| 
D|---0---0---0---0-|---0---0---0---0-|---2---2---2---2-|---2---2---2---2-| 
A|---2---2---2---2-|---2---2---0---0-|---2---2---2---2-|---2---2---2---2-| 
E|-3---3---3---3---|-3---3---2---2---|-0---0---0---0---|-0---0---0---0---| 
   C                                   G 
e|-----------------|-----------------|-----------------------|-----------------| 
B|---1---1---1---1-|---1---1---1---1-|---0-------------------|---0---0---0---0-| 
G|---0---0---0---0-|---0---0---0---0-|---0-------------------|---0---0---0---0-| 
D|---2---2---2---2-|---2---2---2---2-|---0-------0h2p0-------|---0---0---0---0-| 
A|-3---3---3---3---|-3---3---3---3---|---2-0h2p0-------0h2p0-|---2---2---2---2-| 
E|-----------------|-----------------|-3---------------------|-3---3---3---3---| 

Chorus -strumming- 
    C               G                 D               Am7     C/B 
e|---------------------------------|---------------------------------| 
B|------1-------1-------0-------0--|------3-------3-------1-------1--| 
G|------0-------0-------0-------0--|------2-------2-------0-------0--| x3 
D|------2-------2-------0-------0--|------0-------0-------2-------0--| 
A|--3-------3-----------2-------2--|--0-------0-------0-------2------| 
E|------------------3-------3------|---------------------------------| 
   Ooooh        Oh  Ooh...                        ...recognized  me 
                ...followed far...           ...far from    the... 
 ...trees,      The roots   came      up...        ...to     my... 
    C               G                 Am7 
e|---------------------------------|---------------------------------| 
B|------1-------1-------0-------0--|-----(1)------1------(1)------1--| 
G|------0-------0-------0-------0--|-----(0)------0------(0)------0--| 
D|------2-------2-------0-------0--|----------0h2-------------0h2----| 
A|--3-------3-----------2-------2--|--0---------------0--------------| 
E|------------------3-------3------|---------------------------------| 
 ...knees,     they twisted          'round, 
                  C/B    C                      G 
e|---------------------|----------------------|-------------------|-------------------| 
B|---(1)----1--(1)--1--|---1------1-----------|-------------------|-------------------| 
G|---(0)----0--(0)--0--|---0------0-----------|---0-----0---0---0-|---0-----0---0---0-| 
D|------0h2------------|------0h2-----0-------|---0-----0---0---0-|---0-----0---0---0-| 
A|--0---------0---2----|-3----------3---------|-----0h2---3---2p0-|-----0h2---3---2p0-| 
E|---------------------|----------------------|-3-----------------|-3-----------------| 
          ...made no     sound...           No sound. 

verse 3 
   G                                     C                   G 
e|-------------------|-----------------|-------------------|-------------------| 
B|-------------------|-----------------|---1-----1---1---1-|-------------------| 
G|---0---0---0-----0-|---0---0---0---0-|---0-----0---0---0-|---0-----0---0---0-| x2 
D|---0---0---0-----0-|---0---0---0---0-|-----0h2---2p0-----|---0-----0---0---0-| 
A|-----2-------0h2---|-----2-------2---|-3-------------3---|-----0h2---3---2p0-| 
E|-3-------3---------|-3-------3-------|-------------------|-3-----------------| 
I wandered...                     ...succumbed and...     ...stone, 
   Further from the...         ...I'll remain from...   ...begun, 
   Em                                      D/F#              G                   Em    C 
e|-------------------|-------------------|-----------------|-------------------|--------|-------------------| 
B|-------------------|-------------------|-----------------|-------------------|-0------|---1---------------| 
G|---0-----0---0---0-|---0-----0---0---0-|---2---2---2---2-|---0-----0---0---0-|-0------|---0---------------| 
D|---2-----2---2---2-|---2-----2---2---0-|---0---0---0---0-|---0-----0---0---0-|-2------|------0h2p0--------| 
A|-----0h2-------2---|-----0h2-------0---|-----------------|-----0h2---3---2p0-|-2------|-3------------2--0-| 
E|-0---------0-------|-0---------0-------|-2---2---2---2---|-3-----------------|-0------|-------------------| 
   Stumble before...                    ...kicking all... ...child,              In the...burrowed... 
   G                   G 
e|-------------------|-------------------| 
B|-------------------|-------------------| 
G|---0-----0---0---0-|---0-----0---0---0-| 
D|---0-----0---0---0-|---0-----0---0---0-| 
A|-----0h2---3---2p0-|-----0h2---3---2p0-| 
E|-3-----------------|-3-----------------| 
...you. 

Chorus -strumming- 
    C               G                 D               Am7     C/B 
e|---------------------------------|---------------------------------| 
B|------1-------1-------0-------0--|------3-------3-------1-------1--| 
G|------0-------0-------0-------0--|------2-------2-------0-------0--| x3 
D|------2-------2-------0-------0--|------0-------0-------2-------0--| 
A|--3-------3-----------2-------2--|--0-------0-------0-------2------| 
E|------------------3-------3------|---------------------------------| 
   Ooooh        Oh  Ooh...                        ...recognized  me 
                ...followed far...           ...far from    the... 
 ...trees,      The roots   came      up...        ...to     my... 
    C               G                 Am7 
e|---------------------------------|---------------------------------| 
B|------1-------1-------0-------0--|-----(1)------1------(1)------1--| 
G|------0-------0-------0-------0--|-----(0)------0------(0)------0--| 
D|------2-------2-------0-------0--|----------0h2-------------0h2----| 
A|--3-------3-----------2-------2--|--0---------------0--------------| 
E|------------------3-------3------|---------------------------------| 
 ...knees,     they twisted          'round, 
                  C/B    C                      G 
e|---------------------|----------------------|-------------------|-------------------| 
B|---(1)----1--(1)--1--|---1------1-----------|-------------------|-------------------| 
G|---(0)----0--(0)--0--|---0------0-----------|---0-----0---0---0-|---0-----0---0---0-| 
D|------0h2------------|------0h2-----0-------|---0-----0---0---0-|---0-----0---0---0-| 
A|--0---------0---2----|-3----------3---------|-----0h2---3---2p0-|-----0h2---3---2p0-| 
E|---------------------|----------------------|-3-----------------|-3-----------------| 
          ...made no     sound...           No sound. 

verse 4 
   G                                     C                   G 
e|-------------------|-----------------|-------------------|-------------------| 
B|-------------------|-----------------|---1-----1---1---1-|-------------------| 
G|---0---0---0-----0-|---0---0---0---0-|---0-----0---0---0-|---0-----0---0---0-| x2 
D|---0---0---0-----0-|---0---0---0---0-|-----0h2---2p0-----|---0-----0---0---0-| 
A|-----2-------0h2---|-----2-------2---|-3-------------3---|-----0h2---3---2p0-| 
E|-3-------3---------|-3-------3-------|-------------------|-3-----------------| 
   Would you ever...                    ...when my day... ...done? 
 I lay down...                    ...within this earth... ...won, 
   Em                                      D/F#              G 
e|-------------------|-------------------|-----------------|-------------------| 
B|-------------------|-------------------|-----------------|-------------------| 
G|---0-----0---0---0-|---0-----0---0---0-|---2---2---2---2-|---0-----0---0---0-| 
D|---2-----2---2---2-|---2-----2---2---0-|---0---0---0---0-|---0-----0---0---0-| 
A|-----0h2-------2---|-----0h2-------0---|-----------------|-----0h2---3---2p0-| 
E|-0---------0-------|-0---------0-------|-2---2---2---2---|-3-----------------| 
   Would you try...                     ...roads I had... ...walk? 
   Em 
e|---------------|---------------|---------------|| 
B|-0-------------|-1-------------|---------------|| 
G|-0-------------|-0-------------|---------------|| 
D|-2-------------|-2-------------|-0-------------|| 
A|-2-------------|-3-------------|-2-------------|| 
E|-0-------------|---------------|-3-------------|| 
...whisper....from there...  ...me talk. 

verse 1 
Further from my widowed home, take the road that sets into the sun, 
Waiting for my skin and bone to return and see what I've become, 
Summer has not yet been here though my days are long, 
Take me back to when the night was young and another song was sung. 

verse 2 
What of all those pretty tales, the ones that took me to this door? 
Is it comfort in the siren's wail, the comfort upon this wooden floor? 
Tell you, is it a failure to forget the ones you once held dear? 
And I try to remember but my mind is no longer clear. 

Chorus 
Ooooh Oh Ooh, You've recognized me, 
(Ooooh oh ooh ooh ooh) I followed far, far from the trees, 
(Ooooh oh ooh) The roots came up, up to my knees, 
(Ooooh oh ooh ooh ooh) they twisted 'round, 
I made no sound... No sound. 

verse 3 
I wandered 'til my brittle bone had succumbed and pulled me to the stone, 
Further from the towns you've known I'll remain from where I had begun, 
Stumble before I start I was kicking all the stones as a child, 
In the meadow when the storm came through and I burrowed straight back to you. 

Chorus 
Ooooh Oh Ooh, You've recognized me, 
(Ooooh Oh Ooh Ooh Ooh), I followed far, far from the trees, 
(Ooooh Oh Ooh), The roots came up, up to my knees, 
(Ooooh Oh Ooh Ooh Ooh), they twisted 'round, 
I made no sound... No sound. 

verse 4 
Would you ever doubt my love when my day is done? 
I lay down my body within this earth I've won, 
Would you try to follow the roads I had to walk? 
There's a whisper in the willow, from there you'll hear me talk. 

************************************ 

| h   hammer-on 
| p   pull-off 

************************************ 
		  

Full key step upFull key step up
Half key step upHalf key step up
Half key step downHalf key step down
Full key step downFull key step down
hide glossary

See also:

tabs Guns N' Roses - Sweet Child o' mine tabs The Offspring - Come Out and Play tabs Guns N' Roses - Live and Let Die tabs Guns N' Roses - November Rain tabs Foo Fighters - Times Like These tabs Simon & Garfunkel - Sounds of silence
e-chords

Other versions:

tabs Matthew And The Atlas - I Will Remain
auto scroll beats size up size down change color hide chords drawings
tab show chords e-chords YouTube Clip e-chords hide all tabs e-chords go to top tab

share