Matanza

home > Matanza

E Tudo Vai Ficar Pior Tab

Matanza

Difficulty: ExpertExpert

by VELHO

tuner correct add songbook print version text version save to e-mail
chordsukulelecavacokeyboardtabbassdrumsharmonicsflute Guitar Pro
chords

E Tudo Vai Ficar Pior

  		Intro.. 3x               1x                    4x   ( Parte 1 ) 
E|------------------  E|------------------  E|-------------------------------------- 
B|------------------  B|------------------  B|-------------------------------------- 
G|------------------  G|------------------  G|-------------------------------------- 
D|------------------  D|------------------  D|-----------------------------3-4------ 
A|-------2-1-0-1-2--  A|-2-2-----2--------  A|-----------------------------1-2------ 
E|-0-0-3------------  E|-----------3-2----  E|-0-0-3-3-0-0-3-3-0-0-3-3-0-0------3-3- 

(Parte 2) 
E|------------------------------------ 
B|------------------------------------ 
D|------------------------------------ 
A|----------------------2------------- 
E|-0-0-3-3-0-0-3-3-0-0----3-2-0------- 

Quando começa a cantar.. 
Faz idéia do tempo que eu esperei... (Parte 1 e Parte 2) 


Antes do Refrão 

E|------------------ 
B|------------------ 
D|------------------ 
G|------------------ 
A|-0-1-2-3-2-1-0---- 
E|------------------ 

Refrão 

(Várias Vezes)              (Finalizar) 
E|----------   E|-------  E|---------- 
B|----------   B|-------  B|---------- 
D|----------   D|-------  D|---------- 
G|----------   G|-3--4--  G|---------- 
A|-1-1-2-2--   A|-1--2--  A|-2-------- 
E|----------   E|-------  E|---3-2-0-- 
	  

Search Paypal
auto scroll beats size up size down change color hide chords drawings
tab show chords e-chords YouTube Clip e-chords hide all tabs e-chords go to top tab