Mastodon

Halloween

Mastodon

tabs Expert expert

by  GUSTSILVA

save to print version add songbook text version e-mail correct tuner
chordsukulelecavacokeyboardtabbassdrumsharmonicaflute Guitar Pro
close

there isn't a video lesson for this song

chords

Halloween

	  		

                           ITail :1I :2 
-----7^0-10^0---7----------I----0--I---------------------| 
------------------11---11--I-------I9--------------------| 
--------------7------7----9I--6----I--11^9---------------| 
-9--9----------------------I9-----9I-------12-9----------| 
---------------------------I-------I---------------------| 
---------------------------I-------I---------------------| 


----------------------0-------0-/-5----------------------| 
----------2---3---5-------6^5--/----6^5------------------| 
------4--------------------------------------------------| 
-5--5---5---5---5---5---5--------------------------------| 
---------------------------------------------------------| 
---------------------------------------------------------| 


-------------------2x-I-----------------------------------| 
-----------0----------I-----------------------------------| 
----------------------I--------0---------------0----------| 
--------12---12----12-I------7---7---7-------8---8----8---| 
-----14---------14----I----9-------9------10-------10-----| 
-12-------------------I-7--------------8------------------| 


--------------I------------------------------------------| 
----9--7--5---I------------------------------------------| 
-6--9--7--5---I------------------------------------------| 
-4--9--7--5---I------------------------------------------| 
-2--7--5--3---I-2-4-2-4---------2-4-2-4-5-5-5-5-2-4-2...-| 
--------------I---------0-0-0-0--------------------------| 


--------------------------------------| 
--------------------------------------| 
--------------------------------------| 
--------------------------------------| 
------0^2^0--5^2^0--0^2(no pull off)--| (<- pick the string with your middle finger) 
-0--0------0------0-----0--0----------| 
    x      x      x 
 
		  

See also:

tabs Pantera - Cemetary Gates tabs Twisted Syster - Were not gonna take tabs Marilyn Manson - Disposable Teens tabs Dream Theater - Endless Sacrifice tabs Manowar - Brothers Of Metal tabs Alice Cooper - Poison
e-chords

Other versions:

tabs Afi - Halloween tabs Dave Matthews Band - Halloween tabs Dead Kennedys - Halloween tabs Helloween - Halloween tabs King Diamond - Halloween tabs Mastodon - Halloween
auto scroll beats size up size down change color hide chords drawings
tab show chords e-chords YouTube Clip e-chords hide all tabs e-chords go to top tab

share