Mastodon

Curl Of The Burl

Mastodon

tabs Advanced advanced

by  BRUNBLAZKOWSKI

save to print version add songbook text version e-mail correct tuner
chordsukulelecavacokeyboardtabbassdrumsharmonicaflute Guitar Pro
close

there isn't a video lesson for this song

chords

Curl Of The Burl

	  		

Intro/Mainriff 

e|-------------------------------------------| 
B|-------------------------------------------| 
G|-------------------------------------------| 
D|-------------------------------------------| 
A|---------------------------b10(1/2)--------| 
E|-0-10-12--0-12-10--0-10-12-----------10-12-| 


Solo guitar 

e|-----------------------------------------| 
B|-----------------------------------------| 
G|-11--9--7---S(9)11---11-9-7--------------| 
D|----------------------------9------------| 
A|-----------------------------------------| 
E|-----------------------------------------| 


e|------------------------------------7p10-------7-5-5S7| 
B|-S11-9-7-S(9)11----------7---10-7---------10-7--------| 
G|---------------------7-9------------------------------| 
D|---------------------------9--------------------------| 
A|------------------------------------------------------| 
E|------------------------------------------------------| 


Same riff as in intro through the whole 
verse. Then we come to some sort of pre-chorus. 


e|-----------------------------------------X2 
B|-----------------------------------------| 
G|-----------------------------------------| 
D|-----------------------------------------| 
A|---------5-4-----------5-2---------------| 
E|-0--0s7--------0--0s7--------------------| 


Chorus 

e|-----------------------------------------X4 
B|-----------------------------------------| 
G|-----------------------------------------| 
D|------------------2----------------------| 
A|--2-0-2-----2-3-5---5-3-2--0-3S5--------- 
E|0-------0--------------------------------| 

The second guitar comes first in the second verse 
and goes like this: 

e|-------------------------------------------X4 
B|-------------------------------------------| 
G|-------------------------------------------| 
D|--------------------9----------------------| 
A|--9-7-9-----9-10-12--12--10--9---7--9s12---| 
E|0-------0----------------------------------| 



2.Verse intro solo 


e|-----------------------------------------| 
B|-----------------------------------------| 
G|-11--9--7---S(9)11---11-9-7--------------| 
D|----------------------------9------------| 
A|-----------------------------------------| 
E|-----------------------------------------| 


e|------------------------------------------------------| 
B|-S11-9-7-S(9)11---------------------------------------| 
G|--------------------------------------7--9s11---------| 
D|--------------------7-9-7---7p9---7-9-----------------| 
A|--------------------------9---------------------------| 
E|------------------------------------------------------| 

Then you play the same rutine again. First the  
verse, then the pre pre-chorus. Then we come to  
the break in the song. 

Lead guitar: 

e|-------------------------------------------| 
B|------------------5---5s7---b7(8)----------| 
G|-------------------------------------------| 
D|-2---4---4h5-------------------------------| 
A|-------------------------------------------| 
E|-------------------------------------------| 

e|-------------------------------------------| 
B|-12s15--17-17----17----17----12h15h12------| 
G|-------------------------------------------| 
D|-------------------------------------------| 
A|-------------------------------------------| 
E|-------------------------------------------| 

e|-------------------------------------------| 
B|--12vib---12---12----12-----17b(19)-17b(19)| 
G|-------------------------------------------| 
D|-------------------------------------------| 
A|-------------------------------------------| 
E|-------------------------------------------| 

e|--------------14----------------14---------| 
B|-15-----15-17----17v------15-17-----17v----| 
G|-------------------------------------------| 
D|-------------------------------------------| 
A|-------------------------------------------| 
E|-------------------------------------------| 

e|---------------b18(19)---------------------| 
B|-15----------------------------------------| 
G|----16h19h16-------------------------------| 
D|-------------------------------------------| 
A|-------------------------------------------| 
E|-------------------------------------------| 

After this, go back to the main riff, then the pre- 
chorus riff. I will tab the solo later. Don`t hesitate  
to ask me of something related to the tab. 
		  

See also:

tabs Pantera - Cemetary Gates tabs Twisted Syster - Were not gonna take tabs Marilyn Manson - Disposable Teens tabs Dream Theater - Endless Sacrifice tabs Manowar - Brothers Of Metal tabs Alice Cooper - Poison
e-chords

Other versions:

tabs Mastodon - Curl Of The Burl
auto scroll beats size up size down change color hide chords drawings
tab show chords e-chords YouTube Clip e-chords hide all tabs e-chords go to top tab

share