Mastodon

Black Tongue

Mastodon

tabs

by  JESSGOMES

save to print version add songbook text version e-mail correct tuner
chordsukulelecavacokeyboardtabbassdrumsharmonicaflute Guitar Pro
close

there isn't a video lesson for this song

chords

Black Tongue

	  		

D|---------------------------------------------------------------------------| 
G|-------12--------------12----11-------11---------8--------8----------------| 
C|-------X---------------x-----x--------x----------x--------x----11----9-----| 
F|-------9---------------9-----8--------8----------5--------5-----x----x-----| 
A|----------------------------------------------------------------9----7-----| 
D|---0-------0----0----------------------------------------------------------| 




D|--------------------------------------------------------------------------| 
G|-------12--------------12----11-------11---------8--------8-----10----11--| 
C|-------X---------------x-----x--------x----------x--------x------x-----x--| 
F|-------9---------------9-----8--------8----------5--------5------7-----8--| 
A|--------------------------------------------------------------------------| 
D|---0-------0----0---------------------------------------------------------| 




VERSE: 


D|---------------------------------------------------------------------------| 
G|---------------------------------------------------------------------------| 
C|---------------------------------------------------------------------------| 
F|----------------------------------------7--7--7--7--7--7--6--6--6--6--6--6-| 
A|----------------------8--8--8--8--8--8--7--7--7--7--7--7--7--7--7--7--7--7-| 
D|--5--5--5--5--5--5---------------------------------------------------------| 





D|---------------------------------------------------------------------------|(2x) 
G|---------------------------------------------------------------------------| 
C|---------------------------------------------------------------------------| 
F|----------------------------------------7--7--7--7--7--7--5--5--5--5--5--5-| 
A|----------------------8--8--8--8--8--8--7--7--7--7--7--7--7--7--7--7--7--7-| 
D|--5--5--5--5--5--5---------------------------------------------------------| 



"You can run to the sea..." 


D|-------------------------------------------------------------------------| 
G|-------------------------------------------------------------------------| 
C|------------------0----------0------------0------------------------------| 
F|----------------4---4------4---4--------4---4----------------------------| 
A|-----5---6-------------------------3-------------------------------------| 
D|-3----------------------6------------------------------------------------| 



D|--------------------------------------------------------------------------|(2x) 
G|--------------------------------------------------------------------------| 
C|------------------0----------0--------------------------------------------| 
F|----------------4---4------4---4----------0-1-0---------------------------| 
A|-----5---6----------------------------------------------------------------| 
D|-3----------------------6----------2--------------------------------------|  


Guitar I: 



D|---------------------------------------------------------------------------| 
G|---------------------------------------------------------------------------| 
C|---------------------------------------------------------------------------| 
F|---------------------4--7--5----------------------7--4--5------------------| 
A|----------7--6--7-------------------------7-6-7----------------------------| 
D|-0-000---------------------------0-000-------------------------------------| 




Guitar I: 

D|---------------------------------------------------------------------------|(2x) 
G|---------------------------------------------------------------------------| 
C|---------------------------------------------------------------------------| 
F|---------------------4--7--5-------------777777------------111111----------| 
A|----------7--6--7----------------------------------------------------------| 
D|-0-000----------------------------888888-----------333333------------------|  
		  

See also:

tabs Pantera - Cemetary Gates tabs Twisted Syster - Were not gonna take tabs Marilyn Manson - Disposable Teens tabs Dream Theater - Endless Sacrifice tabs Manowar - Brothers Of Metal tabs Alice Cooper - Poison
e-chords

Other versions:

tabs Mastodon - Black Tongue
auto scroll beats size up size down change color hide chords drawings
tab show chords e-chords YouTube Clip e-chords hide all tabs e-chords go to top tab

share