Mastodon

Asleep In The Deep

Mastodon

tabs

by  ANG-LETRA

save to print version add songbook text version e-mail correct tuner
chordsukulelecavacokeyboardtabbassdrumsharmonicaflute Guitar Pro
close

there isn't a video lesson for this song

chords

Asleep In The Deep

	  		Yeah baby, my 1st ever tab submission! Didn't tab the solo. Brent plays just random sh** in his solos 
anyway, so it doesn't matter... 

D does not mean every string needs to be D, it's just D standard (and not D drop). 
Line of "I"s simly seperates some of the parts. 
I had a little fun on the part on 4th row (I'm on fire - Chorus), it's propably a lot more simple than 
that. 
Not sure on the 5th row, but that'll do. 

By the way, I still don't know the names of the strings and this is seriously the 1st time tuned my 
guitar to D standard and I can still do all this, impressive huh? What? It's the right opposite and 
the tabs suck? 
:( 

Anyway, I just love how it's first just brilliantly happy and then gets all beautiful chaotic... 
The part in between is kinda cheesily boring... well at least vocally, but it doesn't ruin the 
other parts for me. 

I liek to tolk, but you can just scroll lower for these texts not to bother you. 


D---------------------------------I------------------------------------| 
D-------10-9-9--9^10^9-7----------I---5-4-4--4^5^4-2-------------------| 
D----11------------------9-7------I--6---------------4-2-1-------------| 
D-11-------------------------10-9-I-6----------------------4-----------| 
D---------------------------------I------------------------------------| 
D---------------------------------I------------------------------------| 

I-------------------------------------------------| 
I------10--10---------10--10--------9-9------9----| 
I------11----11-------11----11------9--9----9-9-9-| 
I---11-11------11--11-11------11--9-9----9-9---9--| 
I-9----9---------9----9---------7---7---7-7-------| 
I-------------------------------------------------| 

D----------------------0------0----------------------------------------| 
D------6-------4-----5--5----4-4---------------------------------------| 
D----7--7----6--6-----------6---6--------------------------------------| 
D---7----7--6----6--7----7-6-----6-------------------------------------| 
D-5-------4-------5-------4--------------------------------------------| 
D----------------------------------------------------------------------| 

D----------------------------------------------------------------------| 
D--------8-8-8-7-8-------8-108-7---------------------------------------| 
D-9------9-9-9-9-9-------9-9-9-9-6-6-6-6-6-6-6-6-5-5-5-5-12-12-12-12---| 
D-9--9-9-9-9-9-9-9-9-9-9-9-9-9-9-6-6-6-6-6-6-6-6-5-5-5-5-12-12-12-12---| 
D-7--7-7-----------7-7-7---------4-4-4-4-4-4-4-4-3-3-3-x-10-10-10-x----| 
D----------------------------------------------------------------------| 

         9 
(or just 9 at the beginning) 
         7 

D(1x)------------I(3x)----------I(4X)-----------I----------------------| 
D----------------I--------------I------5--------I----------------------| 
D-------0-----0--I---------0---0I--6-------6----I----------------------| 
D---5-------4---5I--5--------5--I6---6---6---6--I----------------------| 
D-7---7---7------I7----5--------I--------------4I----------------------| 
D----------------I---7---7------I---------------I----------------------| 

D----------------------------------------------------------------------| 
D-------10-9-----------13-12---------5-4---------5-------7-------------| 
D----11------11-----14-------14----6-----6-----7-------9---------------| 
D-11-------------14--------------6-----------7------10-----------------| 
D----------------------------------------------------------------------| 
D----------------------------------------------------------------------| 



lyrics (not by me): 

the moment you walked in the room my friend 
the demons, they all went away 
be careful they're only asleep for a while 
pretending there's nothing to say 

throw salt in all the corners here 
make sure you watch him leave 

build up the walls around this house 
and dig out the rot in the floor 
block out the entrance with brick and stone 
and mortar thats made from coal 

crawl into this hole I've made 
transform these feelings of fear 

I'm on fire 
say you'll remember her voice 
and i can't get you out of my mind 

loose lips have fallen on deaf ears 
loose lips have fallen on blind eyes 

an ocean of sorrow surrounds this home 
i hope that we make it to shore 
as time chips away at the fortress walls 
its seems that we weathered the storm 
the sun begins to show itself 
revealing victory 

I'm on fire 
say you'll remember her voice 
and i can't get you out of my mind 
		  

Full key step upFull key step up
Half key step upHalf key step up
Half key step downHalf key step down
Full key step downFull key step down
hide glossary

See also:

tabs Slipknot - My Plague tabs Marilyn Manson - Sweet Dreams tabs Marilyn Manson - Rock Is Dead tabs Pantera - Floods tabs Rainbow - Catch The Rainbow tabs Slipknot - Vermillion Pt. 2 (ver. 3)
e-chords

Other versions:

tabs Mastodon - Asleep In The Deep
auto scroll beats size up size down change color hide chords drawings
tab show chords e-chords YouTube Clip e-chords hide all tabs e-chords go to top tab

share