Masterplan

When Love Comes Close

Masterplan

tabs nolevel nolevel

save to print version add songbook text version e-mail correct tuner
chordsukulelecavacokeyboardtabbassdrumsharmonicaflute Guitar Pro
close

there isn't a video lesson for this song

chords

When Love Comes Close

	  		 
Tuning| Standard (EADGBe) 
 
Tab key| 
 
h = hammer on 
p = pull off 
b = bend 
r = release bend 
/ = slide up 
 = slide down 
x = mute 
~ = vibrato 
^ = maximized waah vibrato 
 
 
 
Intro| 
====== 
 
e|-----------5----------------------7----5-----------------0------------- 
B|--------5-------8--5-----------5----------8--5--------4-------4-------- 
G|-----5----------------5-----5----------------------2-------------2----- 
D|--7----------------------5----------------------4-------------------4-- 
A|----------------------------------------------------------------------- 
E|----------------------------------------------------------------------- 
 
e|-----------0-----------0-- 
B|--------0-----------0----- 
G|-----2-----------0-------- 
D|--3-----------2----------- 
A|-------------------------- 
E|-------------------------- 
 
 
 
Acoustic Verse| 
=============== 
 
e|-----------------------6--5h6p5--------5----------- 
B|--5/6--x--6---6h8p6--------------8--6-----8--6--5-- 
G|--------------------------------------------------- 
D|--------------------------------------------------- 
A|--------------------------------------------------- 
E|--------------------------------------------------- 
 
If you think this sounds "empty" and lifeless compared to the CD, it's because 
the root notes are being played by an organ along with the guitar. 
 
 
 
Distorted Verse| 
================ 
 
e|------------------------------------------------------------------------ 
B|------------------------------------------------------------------------ 
G|--5/7--x--7----5--x--3----5/7--x--7----3--x-------5/7--x--7----5--x--3-- 
D|--5/7--x--7----5--x--3----5/7--x--7----3--x--3----5/7--x--7----5--x--3-- 
A|--3/5--x--5----3--x--1----3/5--x--5----1--x--3----3/5--x--5----3--x--1-- 
E|---------------------------------------------1-------------------------- 
 
e|------------------------ 
B|------------------------ 
G|--3--------------------- 
D|--3------------5-----7-- 
A|--1------------5-----7-- 
E|---------------3-----5-- 
 
 
 
Chorus| 
======= 
 
The chorus is played by two types of guitars| electric and acoustic. 
Here is the electric part| 
 
e|----------------------------------------------------------- 
B|----------------------------------------------------------- 
G|----------------------------------------------------------- 
D|--7--7-7-7--7-7-7--7-7-7--7-7-5--5-5-5--5-5-5--5-5-5--5-5-- 
A|--7--7-7-7--7-7-7--7-7-7--7-7-5--5-5-5--5-5-5--5-5-5--5-5-- 
E|--5--5-5-5--5-5-5--5-5-5--5-5-3--3-3-3--3-3-3--3-3-3--3-3-- 
 
e|----------------------------------------------------------- 
B|----------------------------------------------------------- 
G|--5--5-5-5--5-5-5--5-5-5--5-5------------------------------ 
D|--5--5-5-5--5-5-5--5-5-5--5-5-5--5-5-5--5-5-5--5-5-5--5-5-- 
A|--3--3-3-3--3-3-3--3-3-3--3-3-5--5-5-5--5-5-5--5-5-5--5-5-- 
E|------------------------------3--3-3-3--3-3-3--3-3-3--3-3-- 
 
e|----------------------------------------------------------- 
B|----------------------------------------------------------- 
G|--5--5-5-5--5-5-5--5-5-5--5-5------------------------------ 
D|--5--5-5-5--5-5-5--5-5-5--5-5-5--5-5-5--5-5-5--5-5-5--5-5-- 
A|--3--3-3-3--3-3-3--3-3-3--3-3-5--5-5-5--5-5-5--5-5-5--5-5-- 
E|------------------------------3--3-3-3--3-3-3--3-3-3--3-3-- 
 
e|------------------------------------------------------------- 
B|------------------------------------------------------------- 
G|--8-8-8-8-8-8-8-8-8-8-8-8-8-8-8-8---------------------------- 
D|--8-8-8-8-8-8-8-8-8-8-8-8-8-8-8-8-5--5--5--5-5-5--5--5--5-5-- 
A|--6-6-6-6-6-6-6-6-6-6-6-6-6-6-6-6-5--5--5--5-5-5--5--5--5-5-- 
E|----------------------------------3--3--3--3-3-3--3--3--3-3-- 
 
 
And here is the acoustic part, made up by two guitars playing different riffs| 
 
  Guitar #1| 
e|------------------------------------------ 
B|-------------------5-5-------------------- 
G|--------4--5--7--------7--5--7------------ 
D|--5--7----------------------------5-5-5--- 
A|------------------------------------------ 
E|------------------------------------------ 
 
e|------------------------------------------ 
B|-------------------5-5------------8-8-8~-- 
G|--------4--5--7--------7--5--7------------ 
D|--5--7------------------------------------ 
A|------------------------------------------ 
E|------------------------------------------ 
 
e|------------------------------------------ 
B|-------------------5-5-------------------- 
G|--------4--5--7--------7--5--7------------ 
D|--5--7----------------------------5-5-5--- 
A|------------------------------------------ 
E|------------------------------------------ 
 
e|------------------------------------------ 
B|----------------------------------8-8-8~-- 
G|-----------5--7----8-8-7--5--7------------ 
D|--5--7--8--------------------------------- 
A|------------------------------------------ 
E|------------------------------------------ 
 
  Guitar #2| 
e|--------3-----------------------3--------3--------- 
B|-----------------5-----5-----------------------3--- 
G|-----5-----5--------5--------4-----4--------4------ 
D|--5-----------5-----------5-----------5------------ (x3) 
A|--------------------------------------------------- 
E|--------------------------------------------------- 
 
e|--------3--------3--------------3--------3--------- 
B|-----------3-----------3-----------------------3--- 
G|-----3--------------3--------4-----4--------4------ 
D|--5-----------5-----------5-----------5------------ 
A|--------------------------------------------------- 
E|--------------------------------------------------- 
 
It might be hard to identify the two acoustic guitars through all the noise, 
but it gets much easier on the bridge. Remember to stay twice as long on the 
final chord in the second chorus. 
 
 
 
Bridge| 
======= 
 
The two acoustic guitars play what they do on the chorus, just 1 step higher. You should 
now be able to hear which guitar plays what. Also, the bass is taking part in this fusion, 
so it might sound a bit different if you play without one. 
 
  Guitar #1| 
e|------------------------------------------ 
B|-------------------7-7-------------------- 
G|--------6--7--9--------9--7--9------------ 
D|--7--9----------------------------7-7-7--- 
A|------------------------------------------ 
E|------------------------------------------ 
 
e|--------------------------------------------- 
B|-------------------7-7------------10-10-10~-- 
G|--------6--7--9--------9--7--9--------------- 
D|--7--9--------------------------------------- 
A|--------------------------------------------- 
E|--------------------------------------------- 
 
e|------------------------------------------ 
B|-------------------7-7-------------------- 
G|--------6--7--9--------9--7--9------------ 
D|--7--9----------------------------7-7-7--- (x2) 
A|------------------------------------------ 
E|------------------------------------------ 
 
e|------------------------------------------------- 
B|-------------------------------------10-10-10~--- 
G|------------7--9----10-10-9--7--9---------------- 
D|--7--9--10--------------------------------------- 
A|------------------------------------------------- 
E|------------------------------------------------- 
 
  Guitar #2| 
e|--------5-----------------------5--------5--------- 
B|-----------------7-----7-----------------------5--- 
G|-----7-----7--------7--------6-----6--------6------ 
D|--7-----------7-----------7-----------7------------ (x4) 
A|--------------------------------------------------- 
E|--------------------------------------------------- 
 
e|--------5--------5--------------5--------5--------- 
B|-----------5-----------5-----------------------5--- 
G|-----5--------------5--------6-----6--------6------ 
D|--7-----------7-----------7-----------7------------ 
A|--------------------------------------------------- 
E|--------------------------------------------------- 
 
 
 
Guitar Solo| 
============ 
 
Roland Grapow uses a waah-waah in the solo, which messes up all the notes. That's why 
it was difficult to tab. Some notes may be wrong. I apoligize for that. 
 
(Solo over the verse chords) 
 
e|--15b17--17r1513--15--15-20-17----13p12-13p12------- 
B|-----------------------------------------------15~--- 
G|----------------------------------------------------- 
D|----------------------------------------------------- 
A|----------------------------------------------------- 
E|----------------------------------------------------- 
 
e|----------------------------------------------------------------- 
B|----------------------------------------------------------------- 
G|--------12----12-15-15b17--17r15---------------14h17-14h17-14~--- 
D|--12h15----15--------------------15~-----15h17------------------- 
A|----------------------------------------------------------------- 
E|----------------------------------------------------------------- 
 
e|--------------------------------------------------------- 
B|--------------------------------------------------------- 
G|--14p12----12-----------------------------------12b14^--- 
D|--------15-----15--15p12--------------------------------- 
A|-------------------------15-15b17-17r15-13^-------------- 
E|--------------------------------------------------------- 
 
e|-------------------------------------------------- 
B|-------------------------------------------------- 
G|-------------------------------------------------- 
D|------------------------------10--10-------------- 
A|------------------------10-12---------12-10-12~--- 
E|--10h12/13-12-----10-13--------------------------- 
 
 
 
Final Chorus| 
============= 
 
Play just like the previous choruses, except for one little change at the ending| 
 
  Electric guitar| 
e|---------------------------------------------------------------------- 
B|---------------------------------------------------------------------- 
G|---------------------------------------------------------------------- 
D|--3------5------7--7--7--7-7-7--7--7--7-7-7--7--7--7-7-7--7--3--2--7-- 
A|--3------5------7--7--7--7-7-7--7--7--7-7-7--7--7--7-7-7--7--3--2--7-- 
E|--1------3------5--5--5--5-5-5--5--5--5-5-5--5--5--5-5-5--5--1--0--5-- 
 
  Acoustic guitar #1| 
e|----------------------------------------------------------------- 
B|-------------------------------------10-10-10~--------10-10-10~-- 
G|------------7--9----10-10-9--7--9----------------9--------------- 
D|--7--9--10------------------------------------------------------- 
A|----------------------------------------------------------------- 
E|----------------------------------------------------------------- 
 
  Acoustic guitar #2| 
e|--------5--------5--------------5--------5--------------5--------5-------- 
B|-----------5-----------5-----------------------5-----------------------5-- 
G|-----5--------------5--------6-----6--------6--------6-----6--------6----- 
D|--7-----------7-----------7-----------7-----------7-----------7----------- 
A|-------------------------------------------------------------------------- 
E|-------------------------------------------------------------------------- 
 
 
 
Outro| 
====== 
 
e|-----------5----------------------7----5-----------------0------------- 
B|--------5-------8--5-----------5----------8--5--------4-------4-------- 
G|-----5----------------5-----5----------------------2-------------2----- 
D|--7----------------------5----------------------4-------------------4-- 
A|----------------------------------------------------------------------- 
E|----------------------------------------------------------------------- 
 
e|-----------0-----------0--------------0-- 
B|--------0-----------0--------------1----- 
G|-----2-----------0--------------2-------- 
D|--3-----------2--------------2----------- 
A|--------------------------0-------------- 
E|----------------------------------------- 
 
 
_______________________________________________________ 
Contribuição| Eduardo Carvalho([email protected]) 

		  

See also:

tabs Queen - Bohemian Rhapsody tabs Coldplay - Clocks tabs Deep Purple - Smoke On The Water (Easy Intro) tabs The Beatles - And i love her(guitar full version) tabs The Beatles - All You Need Is Love Acoustic tabs Skid Row - 18 And Life
e-chords

Other versions:

tabs Masterplan - When Love Comes Close
auto scroll beats size up size down change color hide chords drawings
tab show chords e-chords YouTube Clip e-chords hide all tabs e-chords go to top tab

share with facebook