Massive Greed

Smash

Massive Greed

tabs

by  PAULLET3

save to print version add songbook text version e-mail correct tuner
chordsukulelecavacokeyboardtabbassdrumsharmonicaflute Guitar Pro
close

there isn't a video lesson for this song

chords

Smash

	  		Intro: 

 
E|---------------------------------------------------| 
B|---------------------------------------------------| 
G|------9-9--9-12-12--12-7-7--7-5-5------------------| 
D|------X-X--X-X--X---X--X-X--X-X-X------------------| 2x 
A|------7-7--7-10-10--10-5-5--5-3-3------------------|  
E|---------------------------------------------------|   
 

Repete intro mais 2x com segunda guitarra: 

Riff 
 
E|---------------------------------------------------| 
B|---------------------------------------------------| 
G|------9-9--12-12-12--5-5-5-------------------------| 
D|------9-9--12-12-12--5-5-5--7-7-7------------------| 
A|------7-7--10-10-10--3-3-3--7-7-7------------------| 
E|----------------------------5-5-5------------------| 
 

Refrão: 

 
E|---------------------------------------------------| 
B|---------------------------------------------------| 
G|----------------7-7-7-5----4-2-0-------------------| 
D|--2-2--4-4-5-5--7-7-7-5----------------------------| 4x 
A|--2-2--4-4-5-5--5-5-5-3----------------------------| 
E|--0-0--2-2-3-3-------------------------------------|   
 

(Refrão) 

Solo (somente na corda B): 

 
B|-12-12---12-12-15-15-15---10-10-10-10-10--8---8-8-| 
 

 
B|-12-12---12-12-15-15-15-12-12--15b17r15-12-15b17r15-12-15b17r15-| 
 

 
B|-17b19r17-15-17b19r17-15-17b19r17-| (2x) 
 

 
B|-15-0(6x)-12-0(6x)-10-0(6x)-8-0(6x)-7-0(6x)-5-0(6x)-3-0(6x)-2-0(6x)-| 
 

(Guitarra 1 - sozinha - refrão - distorção heavy 2x) 
(Guitarra 2 - entra na terceira e quarta vezes) 

(Refrão 4x) 
		  

See also:

tabs Ira! - Poço de Sensibilidade (Solo - Acustico Mtv) tabs Deep Purple - Gypsy Kiss tabs Ira! - Envelheço na Cidade (intro) tabs Deep Purple - Smoke on the Water (solo) tabs Ira! - Eu Quero Sempre Mais (Com Pitty, intro) tabs Ira! - Prisão das Ruas
e-chords

Other versions:

tabs The Offspring - Smash tabs Massive Greed - Smash tabs All Star United - Smash Hit2 tabs The Who - Smash The Mirror tabs Sóley - Smashed Birds tabs Sek - Smasher
auto scroll beats size up size down change color hide chords drawings
tab show chords e-chords YouTube Clip e-chords hide all tabs e-chords go to top tab

share