Massacration

Metal is the Law -2

Massacration

tabs

by  YURI_KASA

save to print version add songbook text version e-mail correct tuner
chordsukulelecavacokeyboardtabbassdrumsharmonicaflute Guitar Pro
close

there isn't a video lesson for this song

chords

Metal is the Law -2

	  		 
Esse é o Inicil da Musica 
 
 
   Ai            ai ai ai           aiaiaiaiaiai encima, embaixa puxa e vai 
E---------------------------------------------------------------- 
B---------------------------------------------------------------- 
G---9-------------9-9-9-------------9-9-9-9-9-9-9-7/9-7-9-7/9-7-9 
D---9-------------9-9-9-------------9-9-9-9-9-9-9-7/9-7-9-7/9-7-9 
A---7-7-7-7-7-7-7-7-7-7-7-7-7-7-7-7-7-7-7-7-7-7-7-5/7-5-7-5/7-5-7 
E---------------------------------------------------------------- 
Tente deixar a palhetada  bem alterada na nota mí 
 
 
E------------------------------ 
B------------------------------ 
G---9-9-9-9-9-9-9-9-9-9-2-2-2-2 
D---9-9-9-9-9-9-9-9-9-9-2-2-2-2 
A---7-7-7-7-7-7-7-7-7-7-0-0-0-0 
E------------------------------ 
 
 
E------------------------------------------------------------ 
B------------------------------------------------------------ 
G---5/7-5-5-5-5-5-5/7-5-5-5-5-5-5-5/7-5-5-5-5-5-5-5/7--------- 
D---5/7-5-5-5-5-5-5/7-5-5-5-5-5-5-5/7-5-5-5-5-5-5-5/7-7-7-7-7-7-7 
A---3/5-3-3-3-3-3-3/5-3-3-3-3-3-3-3/5-3-3-3-3-3-3-3/5-7-7-7-7-7-7 
E-----------------------------------------------------5-5-5-5-5-5 
 
 
Refrão: 
 
 
E---------------------------- 
B---------------------------- 
G---------------------------- 
D---9---9-9-7-7-9---9-9-7---9 
A---7---7-7-5-5-7---7-7-5-9-7 
E-------------------------7-- 

		  

See also:

tabs Angra - Time tabs Shaaman - Fairy Tale tabs Viper - A Cry From The Edge tabs Angra - Wuthering Heights tabs Angra - Cavaleiros do Zodiaco tabs Angra - Late Redemption (solo)
e-chords

Other versions:

tabs Massacration - Metal is the Law -2
auto scroll beats size up size down change color hide chords drawings
tab show chords e-chords YouTube Clip e-chords hide all tabs e-chords go to top tab

share