Masked Intruder

Crime Spree

Masked Intruder

tabs

by  ANG-LETRA

save to print version add songbook text version e-mail correct tuner
chordsukulelecavacokeyboardtabbassdrumsharmonicaflute Guitar Pro
close

there isn't a video lesson for this song

chords

Crime Spree

	  		


Intro x2 
verse 1 
Chorus 
Chorus Ending 
verse 2 
verse 2 Ending 
Chorus 
Intro x4 

Intro 
e|---------------------------------------------------------------------------| 
B|----9-7-6---------6-7-6-------9-7-6----------------------------------------| 
G|--6-------8-6-6-8-------8-6-6-------8-6-----6-------6----------------------| 
D|----------------------------------------6-8----6-8-------------------------| 
A|---------------------------------------------------------------------------| 
E|---------------------------------------------------------------------------| 

Intro/Chorus Chords 
e|---------------------------------------------------------------------------| 
B|---------------------------------------------------------------------------| 
G|-66666666------------------------------------------------------------------| 
D|-66666666-66666666--88888888-44444444--------------------------------------| 
A|-44444444-66666666--88888888-44444444--------------------------------------| 
E|----------44444444--66666666-22222222--------------------------------------| 

verse 1 (Palm muted) 
e|---------------------------------------------------------------------------| 
B|---------------------------------------------------------------------------| 
G|---------------------------------------------------------------------------| 
D|-66666666-888888888-4444444444444444--66666666-88888888-44444444-66666666--| 
A|-66666666-888888888-4444444444444444--66666666-88888888-44444444-66666666--| 
E|-44444444-666666666-2222222222222222--44444444-66666666-22222222-44444444--| 
   Repeat this part 3 times             End on this the 4th time 

Chorus 
e|---------------------------------------------------------------------------| 
B|---------------------------------------------------------------------------| 
G|-66666666------------------------------------------------------------------| 
D|-66666666-66666666--88888888-44444444---3-3-3333--8-8-8-4444-66666666666666| 
A|-44444444-66666666--88888888-44444444---3-3-3333--8-8-8-4444-66666666666666| 
E|----------44444444--66666666-22222222---1-1-1111--6-6-6-2222-44444444444444| 
  Play this part twice                    End on this part     Palm Muted 

Chorus Ending 
e|---------------------------------------------------------------------------| 
B|----9-7-6------9-7-6------9-7-6--------------------------------------------| 
G|--6-------8-6--------8-6--------8-6-----6-----6----------------------------| 
D|------------------------------------6-8---6-8------------------------------| 
A|---------------------------------------------------------------------------| 
E|---------------------------------------------------------------------------| 

Riff in verse 2 
e|---------------------------------------------------------------------------| 
B|--9--7--66-----------------------------------------------------------------| 
G|--6--6--66-----------------------------------------------------------------| 
D|---------------------------------------------------------------------------| 
A|---------------------------------------------------------------------------| 
E|---------------------------------------------------------------------------| 

verse 2 Ending 
e|---------------------------------------------------------------------------| 
B|---------------------------------------------------------------------------| 
G|-88888888-------------------88888888-88888888------------------------------| 
D|-88888888-88888888-66666666-88888888-88888888-88888888-6666666666-66666666-| 
A|-66666666-88888888-66666666-66666666-66666666-88888888-6666666666-66666666-| 
E|----------66666666-44444444-------------------66666666-4444444444-44444444-| 



************************************ 

| /   slide up 
| \   slide down 
| h   hammer-on 
| p   pull-off 
| ~   vibrato 
| +   harmonic 
| x   Mute note 
| b   Bend 
| pb  Pre-bend 
| br  Bend release 
| pbr Pre-bend release 
| brb Bend release bend 

************************************ 
		  

See also:

tabs Chickenfoot - No Change tabs Chickenfoot - Last Temptation tabs Kylesa - Unknown Awareness tabs Kylesa - To Walk Alone tabs Chickenfoot - Dubai Blues
e-chords

Other versions:

tabs Masked Intruder - Crime Spree
auto scroll beats size up size down change color hide chords drawings
tab show chords e-chords YouTube Clip e-chords hide all tabs e-chords go to top tab

share