Mark Lanegan

Little Saddie

Mark Lanegan

tabs

by  SABRJOAO

save to print version add songbook text version e-mail correct tuner
chordsukulelecavacokeyboardtabbassdrumsharmonicaflute Guitar Pro
close

there isn't a video lesson for this song

chords

Little Saddie

	  		Intro 

E|---------------------------------------------------------------------------| 
B|---------------------------------------------------------------------------| 
G|-------------------------------------0h2-2-2-0-----------------------------| 
D|--------0-0-3p0---0-------0------0h3-----------3b-0-------0----------------| 
A|---0h3----------3-----0h3-----------------------------0h3------------------| 
D|--------------------3-------3b-0--------------------3-------3b-0-----------| 

E|---------------------------------------------------------------------------| 
B|---------------------------------------------------------------------------| 
G|---0h2-2-2-2--2-2-2p0---2--------------------------------------------------| 
D|---0---0-0-0--0-0-0---3-0-0h2-2-2-2--2-2-2p0----2--------0-0-2p0-----2-----| 
A|------------------------0-0---0-0-0--0-0-0---3b-0--0-0-3---0-0---3p0-0-----| 
D|------------------------------------------------0--------------------------| 

E|-------------------------------------------------------------------------------------| 
B|-------1-----------------------------------------------------------------------------| 
G|---2-2---2-2-2p0---2-----------------------------------------------------------------| 
D|---------0-0-----3-0-----------------------------------------------------------------| 
A|-------------------0-----------------------------------------------------------------| 
D|-------------------------------------------------------------------------------------| 


************************************ 

| h  Hammer-on 
| p  Pull-off 
| b  Bend 

************************************ 
		  

See also:

tabs Pearl Jam - Yellow Ledbetter tabs Nirvana - About A Girl Acoustic tabs Pearl Jam - Given to Fly tabs Nirvana - come as you are (riff) tabs Nirvana - Heart-shaped Box tabs Pearl Jam - Jeremy (unplugged)
e-chords

Other versions:

tabs Mark Lanegan - Little Saddie
auto scroll beats size up size down change color hide chords drawings
tab show chords e-chords YouTube Clip e-chords hide all tabs e-chords go to top tab

share