save to print version add songbook text version e-mail correct tuner
chordsukulelecavacokeyboardtabbassdrumsharmonicaflute Guitar Pro
close

there isn't a video lesson for this song

chords

I Do

Key:  G More
I Do Key DD
I Do Key D#D#
I Do Key EE
I Do Key FF(one step down)
I Do Key F#F#(half step down)
I Do Key GG(original key)
I Do Key G#G#(half step up)
I Do Key AA(one step up)
I Do Key A#A#
I Do Key BB
I Do Key CC
I Do Key C#C#
	  		
For the verses: 
e|---------------------------------------------------------------------------| 
B|---------------------------------------------------------------------------| 
G|-----0-----0-----0-----0------0-----0-----0-----0--------------------------| 
D|--------------------------------------------------------x3-----------------| 
A|---------------------------------------------------------------------------| 
E|--3-----3-----3-----3------0-----0-----0-----0-----------------------------| 

e|---------------------------------------------------------------------------| 
B|---------------------------------------------------------------------------| 
G|-------5-----5-----5-----5---------2-----2-----2-----2----(0 before Chorus)| 
D|---------------------------------------------------------------------------| 
A|---------------------------------------------------------------------------| 
E|--5------5------5------5-------2-----2-----2-----2-------------------------| 

Chorus 
e|---------------------------------------------------------------------------| 
B|---------------------------------------------------------------------------| 
G|------0-----0------0-----0-------0-----0-----0-----0-----------------------| 
D|--------------------------------------------------------x2-----------------| 
A|--3-----3------2-----2-----------------------------------------------------| 
E|----------------------------0------0-----0-----0---------------------------| 

e|---------------------------------------------------------------------------| 
B|---------------------------------------------------------------------------| 
G|------0-----0-----0-----0--------0-----0-----0-----0-----0----0------------| 
D|---------------------------------------------------------------------------| 
A|--3-----3------2-----2-----------------------------------------------------| 
E|-----------------------------3------2-----0-----0-----0-----0--------------| 
                         (repeat underneath as needed between verses) 
e|---------------------------------------------------------------------------| 
B|--------------------------------------------0------------------------------| 
G|-----0----0----0----0-----0-----0-----0-----------0-----0----0-------------| 
D|------------------------------------------------------------------0--------| 
A|---------------------------------------------------------------------------| 
E|--2----2----2----2-----3-----3-----3----3------0-----0----0----0-----------|  
		  

auto scroll beats size up size down change color hide chords drawings
tab show chords e-chords YouTube Clip e-chords hide all tabs e-chords go to top tab

share