Marcy Playground

No One's Boy

Marcy Playground

tabs

by  WEEZER PILLOWS

save to print version add songbook text version e-mail correct tuner
chordsukulelecavacokeyboardtabbassdrumsharmonicaflute Guitar Pro
close

there isn't a video lesson for this song

chords

No One's Boy

	  		No One's Boy 
by Marcy Playground 
 
STANDARD TUNING 
 
intro / verse 
|------------0-0-0--0--0-0-----3--3-3--3-3-3-3--| 
|------------1-1-1--1--1-1-----3--3-3--3-3-3-3--| 
|------------2-2-2--2--2-2--0--0--0-0--0-0-0-0--| 
|--3--3-3-3--2-2-2--2--2-2--0--0--0-0--0-0-0-0--| 
|--3--3-3-3--0-0-0--0--0-0----------------------| 
|--1--1-1-1-----------------3--3--3-3--3-3-3-3--| 
 
Pre-Chorus 
|-----0--0-0----0--0-0----0-0-0-0-0-0-0-- 
|-----1--1-1----1--1-1----1-1-1-1-1-1-1-- 
|-----0--0-0----0--0-0----2-2-2-2-2-2-2-- 
|-------------------------2-2-2-2-2-2-2-- 
|--3~-3--3-3-2~-2--2-2--0-0-0-0-0-0-0-0-- 
|---------------------------------------- 
 
|-------------------s-p-c----2-2-3-2----- 
|-------------------e-r-h----3-3-3-3----- 
|-------------------c-e-o----2-2-2-2----- 
|--2-2-2-2-2-2-2-2--o---r--0-0-0-0-0----- 
|--2-2-2-2-2-2-2-2--n---u---------------- 
|--0-0-0-0-0-0-0-0--d---s---------------- 
 
Chorus 
|--0--|--3--|--1--| 
|--1--|--3--|--1--| 
|--2--|--0--|--2--| 
|--2--|--0--|--3--|x2 
|--0--|-----|--3--| 
|-----|--3--|--1--| 
 
and then pre-Chorus 

		  

See also:

tabs Red Hot Chili Peppers - Under the Bridge tabs Eye of the tiger - Eye of the tiger tabs Los Lonely Boys - Heaven tabs Red Hot Chili Peppers - Snow (hey oh) tabs Jeff Buckley - Hallelujah tabs Red Hot Chili Peppers - Venice Queen
e-chords

Other versions:

tabs Marcy Playground - No One's Boy
auto scroll beats size up size down change color hide chords drawings
tab show chords e-chords YouTube Clip e-chords hide all tabs e-chords go to top tab

share