Marcy Playground

No Money No Honey

Marcy Playground

tabs Expert expert

by  WEEZER PILLOWS

save to print version add songbook text version e-mail correct tuner
chordsukulelecavacokeyboardtabbassdrumsharmonicaflute Guitar Pro
close

there isn't a video lesson for this song

chords

No Money No Honey

	  		This is an easy but good song 
 
No Money No Honey  
by Marcy Playground 
 
STANDARD TUNING 
 
intro 
|----------------------------------------| 
|----------------------------------------| 
|--7-6---9-7---7-6---9-7----7-6-----6~---| 
|------7-----7-----7-----7------7-9------| 
|----------------------------------------| 
|----------------------------------------| 
 
|--------------------------| 
|--------------------------| 
|--7-6---------------------| 
|------7-7-----6-7-7-------| 
|----------9-9-------9-7~--| 
|--------------------------| 
 
verse - all palm muted 
|-----------------------------------| 
|-----------------------------------| 
|----------7-7-7-7------------------| 
|--4-4-4-4-7-7-7-7-7-7-7-7-7-7-7-7--| 
|--4-4-4-4-5-5-5-5-7-7-7-7-7-7-7-7--| 
|--2-2-2-2---------5-5-5-5-5-5-5-5--| 
 
Chorus 
|-----------------------------------| 
|-----------------------------------| 
|----------7-7-7-x------------------| 
|--4-4-4-x-7-7-7-x-7-7-7-7-7-7-7-7--| 
|--4-4-4-x-5-5-5-x-7-7-7-7-7-7-7-7--| 
|--2-2-2-x---------5-5-5-5-5-5-5-5--| 
 
End On 
|--------| 
|--------| 
|--------| 
|--7~~~--| 
|--7~~~--| 
|--5~~~--| 
 
~ - let ring 
 
by Weezer Pillows 
 
 

		  

See also:

tabs Red Hot Chili Peppers - Under the Bridge tabs Eye of the tiger - Eye of the tiger tabs Los Lonely Boys - Heaven tabs Red Hot Chili Peppers - Snow (hey oh) tabs Jeff Buckley - Hallelujah tabs Red Hot Chili Peppers - Venice Queen
e-chords

Other versions:

tabs Marcy Playground - No Money No Honey
auto scroll beats size up size down change color hide chords drawings
tab show chords e-chords YouTube Clip e-chords hide all tabs e-chords go to top tab

share