Marcy Playground

Blood In Alphabet Soup

Marcy Playground

tabs

by  WEEZER PILLOWS

save to print version add songbook text version e-mail correct tuner
chordsukulelecavacokeyboardtabbassdrumsharmonicaflute Guitar Pro
close

there isn't a video lesson for this song

chords

Blood In Alphabet Soup

	  		Blood In Alphabet Soup 
by Marcy Playground 
 
STANDARD TUNING 
 
~ - let ring 
/ - slide 
 
Intro                   
|-----------------|    
|-----------------|    
|--5--5-----------|    
|--5--5--666-555--|x3  
|--3--3--666-555--|    
|--------444-333--|after 3 times, play the last chord 
a few more times, then go to the verse. 
 
verse 
|----------------| 
|----------------| 
|--5--5----------|played 
|--5--5--666--5--|MANY 
|--3--3--666--5--|times 
|--------444--3--| 
 
Chorus - these chords are played. 
|-----|-----|-----|-----| 
|-----|-----|-----|-----| 
|--5--|--8--|-----|--8--| 
|--5--|--8--|--5--|--8--| 
|--3--|--6--|--5--|--6--| 
|-----|-----|--3--|-----| 
 
Chorus continued ("Can You...No...Sorry") 
|-------------| 
|-------------| 
|-------------|don't let 
|--5~--6~--5--|last chord 
|--5~--6~--5--|ring. 
|--3~--4~--3--| 
 
verse 
 
Chorus 
 
solo 
|----------------------------------| 
|----------------------------------| 
|----------------------------------| 
|----------5-------8---------------|x4 
|--1-1-2-3---3-/-6---6----5-----5--| 
|-----------------------3---3-3----| 
the first 1 is only played the first time. 
 
verse 
 
end on 
|------| 
|------| 
|------| 
|--5~--| 
|--5~--| 
|--3~--| 
 
 ~enjoy~ 
 
            _  
 /\/\      |_| 
/    \ARCY |  layground 
 

		  

See also:

tabs Red Hot Chili Peppers - Under the Bridge tabs Eye of the tiger - Eye of the tiger tabs Los Lonely Boys - Heaven tabs Red Hot Chili Peppers - Snow (hey oh) tabs Jeff Buckley - Hallelujah tabs Red Hot Chili Peppers - Venice Queen
e-chords

Other versions:

tabs Marcy Playground - Blood In Alphabet Soup
auto scroll beats size up size down change color hide chords drawings
tab show chords e-chords YouTube Clip e-chords hide all tabs e-chords go to top tab

share