Marco Barrientos

En Tí Quiero Vivir

Marco Barrientos

tabs

by  MISSIONAR

save to print version add songbook text version e-mail correct tuner
chordsukulelecavacokeyboardtabbassdrumsharmonicaflute Guitar Pro
close

there isn't a video lesson for this song

chords

En Tí Quiero Vivir

(Marco Barrientos)

	  		Solo Guitarra 

e------------9--9-------------------------------------9--------- 
b--11h9----9------11--11-9----9-------------11h9----9---11-9---- 
G-------10-----------------10---10--8-6s8--------10------------- 
D--------------------------------------------------------------- 
A--------------------------------------------------------------- 
E--------------------------------------------------------------- 

e--11b12-11-9--12h11-12h11---15h13----13----------16----18b19--- 
b----------------------------------14----14----18----16--------- 
G-------------------------------------------15------------------ 
D--------------------------------------------------------------- 
A--------------------------------------------------------------- 
E--------------------------------------------------------------- 

e--18h16----16-18s20-18---18h21----18------------------------------- 
b--------18---------------------21----21-18-21h8-----18------------- 
G-------------------------------------------------20----20-18-20h18- 
D------------------------------------------------------------------- 
A------------------------------------------------------------------- 
E------------------------------------------------------------------- 

e------------------------------ 
b------------------------------ 
G-----18----------18v---------- 
D--20----20-18h20-------------- 
A------------------------------ 
E------------------------------ 
		  

auto scroll beats size up size down change color hide chords drawings
tab show chords e-chords YouTube Clip e-chords hide all tabs e-chords go to top tab

share