Maps and Atlases

Old Ash

Maps and Atlases

tabs

by  PAULANTUNES

save to print version add songbook text version e-mail correct tuner
chordsukulelecavacokeyboardtabbassdrumsharmonicaflute Guitar Pro
close

there isn't a video lesson for this song

chords

Old Ash

	  		


Guitar 1: 
e|----11---------------------------------------------------------------------| 
B|--------------13-----------------------------------------------------------| 
G|--------------------------15-----------------------------------------------| 
D|---------------------------------------------------------------------------| 
A|---------------------------------------------------------------------------| 
E|---------------------------------------------------------------------------| 

Guitar 2: 
e|---------------------------------------------------------------------------| 
B|---------------------------------------------------------------------------| 
G|--888----------------------------------------------------------------------| 
D|------8-8-10-10------------------------------------------------------------| 
A|----------------10-10-13-13------------------------------------------------| 
E|------------------------------10-10-10-11----------------------------------| 

Guitar 3 part 1: 
e|---------------------------------------------------------------------------| 
B|--4-2----4-2----4-2--------------------------------------------------------| 
G|------4------4------4----4-2----4-2---2------------------------------------| 
D|-----------------------------4------4---4/5--------------------------------| 
A|---------------------------------------------------------------------------| 
E|---------------------------------------------------------------------------| 

Guitar 3 part 2: 
e|--222--332---2--00---------------------------------------------------------| 
B|-----------5------3-2-3----------------------------------------------------| 
G|---------------------------------------------------------------------------| 
D|---------------------------------------------------------------------------| 
A|---------------------------------------------------------------------------| 
E|---------------------------------------------------------------------------| 

Guitar 3 part 3: 
e|--2---2-0-5-2---2-0-5-2---2-0-5-7-7-7-7-5-3-2------------------------------| 
B|---------------------------------------------------------------------------| 
G|---------------------------------------------------------------------------| 
D|---------------------------------------------------------------------------| 
A|---------------------------------------------------------------------------| 
E|---------------------------------------------------------------------------| 

Guitar 3 part 4 (Solo): 
e|--2---2-0-5-2---2-0-5-2---2-0-5-7-7-7-7-7-9/10-10-10-10-9-7-9-10-10-10-10--| 
B|---------------------------------------------------------------------------| 
G|---------------------------------------------------------------------------| 
D|---------------------------------------------------------------------------| 
A|---------------------------------------------------------------------------| 
E|---------------------------------------------------------------------------| 
                                                                
e|-/14-14-14---14-14-14-12-14/15-15-14--14-14-12-9-10--10--------------------| 
B|---------------------------------------------------------------------------| 
G|---------------------------------------------------------------------------| 
D|---------------------------------------------------------------------------| 
A|---------------------------------------------------------------------------| 
E|---------------------------------------------------------------------------| 

Guitar 3 part 5: 
e|--10-9-7-10-9-7------------------------------------------------------------| 
B|-----------------7---------------------------------------------------------| 
G|---------------------------------------------------------------------------| 
D|---------------------------------------------------------------------------| 
A|---------------------------------------------------------------------------| 
E|---------------------------------------------------------------------------| 

Guitar 4: 
e|--15-13-11-13-11-10-11-10-8-10-8-6-----------------------------------------| 
B|---------------------------------------------------------------------------| 
G|---------------------------------------------------------------------------| 
D|---------------------------------------------------------------------------| 
A|---------------------------------------------------------------------------| 
E|---------------------------------------------------------------------------| 


************************************ 

| /   slide up 

************************************ 
		  

See also:

tabs Red Hot Chili Peppers - Around The World tabs 311 - The Love Song tabs Red Hot Chili Peppers - Scar Tissue (ver. 4) tabs Audioslave - Cochise tabs Incubus - Wish You Were Here (ver. 1) tabs Red Hot Chili Peppers - Californication
e-chords

Other versions:

tabs Maps and Atlases - Old Ash
auto scroll beats size up size down change color hide chords drawings
tab show chords e-chords YouTube Clip e-chords hide all tabs e-chords go to top tab

share