Manowar

Blood Of The Kings

Manowar

tabs

save to print version add songbook text version e-mail correct tuner
chordsukulelecavacokeyboardtabbassdrumsharmonicaflute Guitar Pro
close

there isn't a video lesson for this song

chords

Blood Of The Kings

	  		  Words and Music by Joey DeMaio 
 
 
Gtr I (E A D G B E) - 'Rythm' 
Gtr II (E A D G B E) - 'lead' 
 
 Intro 
  Q=154 
                 E5       D5         C5       B5 
 4/4 
  Gtr II 
|------------||--------------------|-------------------| 
|------------||o-------------------|-------------------| 
|------------||--12-------11-------|--9-------8--------| 
|------------||--12-------12-------|-10-------9--------| 
|------------||o-------------------|-------------------| 
|------------||--------------------|-------------------| 
| 
| Gtr I 
|        PM|          PM|      PM|        PM|     PM| 
|------------||--------------------|-------------------| 
|------------||o-------------------|-------------------| 
|------------||--------------------|-------------------| 
|------------||---9--------7-------|--5-------4--------| 
|------------||o--7--------5-------|--3-------2--------| 
|--------0-0-||-------0-0------0-0-|------0-0-----0-0--| 
 
 
  1.,2.                                                     3. 
  E5                                                        A5      G5 
                                                         3x 
|---------------------------|----------------------------||------------------| 
|---------------------------|---------------------------o||------------------| 
|-9-------------------------|----------------------------||-5-------4--------| 
|-9-------------------------|----------------------------||-7-------5--------| 
|---------------------------|---------------------------o||------------------| 
|---------------------------|----------------------------||------------------| 
| 
|   PM----|   PM----|   PM|     PM----|   PM----|   PM|         PM|     PM| 
|                                                        3x 
|---------------------------|----------------------------||------------------| 
|---------------------------|---------------------------o||------------------| 
|---------------------------|----------------------------||------------------| 
|-9---------9---------9-----|-9---------9---------9------||-2----------------| 
|-7---------7---------7-----|-7---------7---------7-----o||-0-------5--------| 
|---0-0-0-0---0-0-0-0---0-0-|---0-0-0-0---0-0-0-0---0-0--||-----0-0-3---0-0--| 
 
 
  F5      A5     B5 
|--------------|-----------------| 
|--------------|-----------------| 
|-2-------2----|-4---------------| 
|-3-------2----|-4---------------| 
|--------------|-----------------| 
|--------------|-----------------| 
| 
|     PM|        PM--------------- 
|--------------|-----------------| 
|--------------|-----------------| 
|--------------|-----------------| 
|---------2----|-4-4-4-4-4-4-4-4-| 
|-3-------0----|-2-2-2-2-2-2-2-2-| 
|-1---0-0------|-----------------| 
 
 
|-------------------|--------------------------| 
|-------------------|--------------------------| 
|-(4)---------------|--------------------------| 
|-(4)---------------|--------------0-----------| 
|-------------------|--------0-2-3---3-2-0-----| 
|-------------------|-0-2--3---------------3-2-| 
| 
|-----------------| 
|-------------------|--------------------------| 
|-------------------|--------------------------| 
|-------------------|--------------------------| 
|--4--4-4-4-4-4-4-4-|-4------------------------| 
|--2--2-2-2-2-2-2-2-|-2------------------------| 
|-------------------|--------------------------| 
 
 
                      E5 
                        PM----|   PM----|   PM|     PM----|   PM----|   PM| 
|------------------||---------------------------|----------------------------| 
|------------------||---------------------------|----------------------------| 
|------------------||---------------------------|----------------------------| 
|-------------2----||-9---------9---------9-----|-9---------9---------9------| 
|-------0-2-3------||-7---------7---------7-----|-7---------7---------7------| 
|-0-2-3------------||---0-0-0-0---0-0-0-0---0-0-|---0-0-0-0---0-0-0-0---0-0--| 
 
 
|-------------------------------12-14-15-14-12----| 
|----------------------12-14-15----------------15-| 
|-------------11-12-14----------------------------| 
|----11-12-14-------------------------------------| 
|-14----------------------------------------------| 
|-------------------------------------------------| 
| 
| Gtr I 
|        PM------|         PM------|         PM| 
|-------------------------------------------------| 
|-------------------------------------------------| 
|-------------------------------------------------| 
|--9-----------------9-----------------9----------| 
|--7-----------------7-----------------7----------| 
|--------0--0--0--0--------0--0--0--0--------0--0-| 
 
 
                                        ~~ 
|-------------------------------------------------------|| 
|-14-12-------------------------------------------------|| 
|-------14-12---11--------------------------------------|| 
|------------------14-12---11---------------------------|| 
|-----------------------------14-12-10------------------|| 
|--------------------------------------12---------------|| 
| 
|        PM--------------|              PM----|   PM| 
|-------------------------------------------------------|| 
|-------------------------------------------------------|| 
|-------------------------------------------------------|| 
|--9---------------------------9----------------9-------|| 
|--7---------------------------7----------------7-------|| 
|--------0----0-----0----0--------------0-0-0-0---0-0---|| 
 
 
   Verse 1st & 2nd 
    E5         Em/G       B5         B 
||-----------|-0--------|----------|-2----| 
||o----------|-0--------|----------|-4----| 
||-----------|-0--------|-4--------|-4----| 
||--2--------|----------|-4--------|------| 
||o-2--------|----------|-2--------|------| 
||--0--------|----------|----------|------| 
 
 
  E5         Em/G       B5 
                                         ~ 
|----------|-0--------|----------------|-------------| 
|----------|-0--------|----------------|-------------| 
|----------|-0--------|-4----(4)-------|-------------| 
|-2--------|----------|-4----(4)-------|-------------| 
|-2--------|----------|-2----(2)---0-2-|-3--2--0-----| 
|-0--------|----------|----------------|----------3--| 
 
 
  E5         Em/G       B5         B 
|----------|-0--------|----------|-2----| 
|----------|-0--------|----------|-4----| 
|----------|-0--------|-4--------|-4----| 
|-2--------|----------|-4--------|------| 
|-2--------|----------|-2--------|------| 
|-0--------|----------|----------|------| 
 
 
  E5         Em/G       B5 
                                         ~~~~~~~ 
|----------|-0--------|----------------|---------------| 
|----------|-0--------|----------------|---------------| 
|----------|-0--------|-4----(4)-------|---------------| 
|-2--------|----------|-4----(4)-------|---------------| 
|-2--------|----------|-2----(2)---0-2-|-3--{2}--0-----| 
|-0--------|----------|----------------|------------3--| 
 
 
                Chorus 
                 E5 
  ~     ~          PM----|   PM----|   PM|     PM----|   PM----|   PM| 
|-------------||---------------------------|---------------------------| 
|-------------||---------------------------|---------------------------| 
|-------------||---------------------------|---------------------------| 
|-------------||-9---------9---------9-----|-9---------9---------9-----| 
|-2--0--------||-7---------7---------7-----|-7---------7---------7-----| 
|-------3--2--||---0-0-0-0---0-0-0-0---0-0-|---0-0-0-0---0-0-0-0---0-0-| 
 
 
  C5   G5     D5   E5 
                            PM----|   PM----|   PM| 
|-----------|-----------|---------------------------| 
|-----------|-----------|---------------------------| 
|-5---------|-7----9----|---------------------------| 
|-5----5----|-7----9----|-9---------9---------9-----| 
|-3----5----|-5----7----|-7---------7---------7-----| 
|------3----|-----------|---0-0-0-0---0-0-0-0---0-0-| 
 
 
    PM----|   PM----|   PM| 
|-----------------------------| 
|-----------------------------| 
|-----------------------------| 
|-9---------9---------9-------| 
|-7---------7---------7-------| 
|---0-0-0-0---0-0-0-0---0-0---| 
 
 
  1.,2. 
  C5   G5     D5   E5     C5   G5     D5 
|-----------|-----------|-----------|----------| 
|-----------|-----------|-----------|----------| 
|-5---------|-7----9----|-5---------|-7--------| 
|-5----5----|-7----9----|-5----5----|-7--------| 
|-3----5----|-5----7----|-3----5----|-5--------| 
|------3----|-----------|------3----|----------| 
 
 
  E5 
    PM----|   PM----|   PM|     PM----|   PM----|   PM| 
|---------------------------|---------------------------| 
|---------------------------|---------------------------| 
|---------------------------|---------------------------| 
|-9---------9---------9-----|-9---------9---------9-----| 
|-7---------7---------7-----|-7---------7---------7-----| 
|---0-0-0-0---0-0-0-0---0-0-|---0-0-0-0---0-0-0-0---0-0-| 
 
 
    PM----|   PM----|   PM|     PM----|   PM----|   PM| 
                                                            3x 
|---------------------------|-------------------------------|| 
|---------------------------|------------------------------o|| 
|---------------------------|-------------------------------|| 
|-9---------9---------9-----|-9---------9---------9---------|| 
|-7---------7---------7-----|-7---------7---------7--------o|| 
|---0-0-0-0---0-0-0-0---0-0-|---0-0-0-0---0-0-0-0---0-0-----|| 
 
 
                                Guitar Solo 
  3. 
  C5  G5    D5  E5    C5  G5     D5 
  |   |     |   |     |   |       | 
  /   /     /   /     /   /       / 
 
  Gtr II 
                                  /      \7 
|---------|---------|---------||-------------| 
|---------|---------|---------||-15----------| 
|---------|---------|---------||-------------| 
|---------|---------|---------||-------------| 
|---------|---------|---------||-------------| 
|---------|---------|---------||---------0---| 
 
 
  E5 
    PM----|      PM------|     PM|       PM-------|     PM----|     PM| 
|----------------------------------|------------------------------------| 
|----------------------------------|------------------------------------| 
|----------------------------------|------------------------------------| 
|-9----------9--------------9------|--9-------------9-----------9-------| 
|-7----------7--------------7------|--7-------------7-----------7-------| 
|---0-0-0-0------0--0-0--0-----0-0-|-----0-0-0----0-----0-0-0-0-----0-0-| 
| 
| Gtr II 
| |          /        \7    |         |      \1.5                     | 
|----------------------------------|---------5h===8p5h8p5h8p5h8p5h8p5h8-| 
|-----------15-(15)----------------|------------------------------------| 
|----------------------------------|------------------------------------| 
|----------------------------------|------------------------------------| 
|----------------------------------|------------------------------------| 
|-0-------------------0----(0)-----|-(0)--------------------------------| 
 
 
            PM----|   PM----|   PM|          PM----|   PM----|     PM-| 
|-----------------------------------|-----------------------------------| 
|-----------------------------------|-----------------------------------| 
|-----------------------------------|-----------------------------------| 
|------9------------9---------9-----|--9-------------9---------9--------| 
|------7------------7---------7-----|--7-------------7---------7--------| 
|-----------0-0-0-0---0-0-0-0---0-0-|--------0-0-0-0---0-0-0-0-----0--0-| 
| 
|      | 
|-----17b19-------------------------|-19b21======================(19)---| 
|---x-------------------------------|-----------------------------------| 
|-x---------------------------------|-----------------------------------| 
|-----------------------------------|-----------------------------------| 
|-----------------------------------|-----------------------------------| 
|-----------------------------------|-----------------------------------| 
 
 
  E 
    |  ||||||||||||| |    |      | |   |   | |    |   |  | |    | |  | |  ||| 
    o  ///////////// /    /      / /   /   / /    /   /  / /    / /  / /  /// 
 
|-(19)------------------------|----------------------------------------------| 
|-----------------------------|----------------------------------------------| 
|-----------------------------|----------------------------------------------| 
|-----------------------------|----------------------------------------------| 
|-----------------------------|----------------------------------------------| 
|-----------------------------|----------------------------------------------| 
| 
|   | 
|   ~~~~                                                   ~~~~ 
|-----------------------------|----------------------------------------------| 
|-----------------------------|----------------------------------------------| 
|--16---------------14h16p=14s|=12--14--12--11h12p=11s9-11-9b11--(9)--(9)----| 
|-----------------------------|----------------------------------------------| 
|-----------------------------|----------------------------------------------| 
|-----------------------------|----------------------------------------------| 
 
 
  B 
  | ||||||| |  |||||| |    | | | |  | | | |  | | | |  | | | | 
  o /////// /  ////// /    / / / /  / / / /  / / / /  / / / / 
 
  ~ 
|-----------------------|-------------------------------------| 
|-----------------------|-------------------------------------| 
|-8--------(8)--------8-|-11p8---8-11p8---8-11p8---8-11p8---8-| 
|-------------------9---|------9--------9--------9--------9---| 
|-----------------------|-------------------------------------| 
|-----------------------|-------------------------------------| 
 
 
  E 
   |    ||||||| | ||| | | | |   | | | | | | | | | | | |  |  ||| 
   o    /////// / /// / / / /   / / / / / / / / / / / /  /  /// 
 
   | 
                                                         ~~~~ 
|-14b15--------14----12--12--|-12------------------------------| 
|----------------------------|-----12--12----------------------| 
|----------------------------|-------------12--12--11--(11)----| 
|----------------------------|---------------------------------| 
|----------------------------|---------------------------------| 
|----------------------------|---------------------------------| 
 
 
  B                                           AB  C      B     A     G 
   |  |  |  |  |  |  |  |  |  |  |  |  |     |||    |     |     |     | 
   o  /  /  /  /  /  /  /  /  /  /  /  /     /oo    o     o     o     o 
 
|-------------------------------17-19-17b19=====|=(17)r--19-19-20-22-22--| 
|----------------------17-19-20-----------------|------------------------| 
|-------------16-17-19--------------------------|------------------------| 
|----16-17-19-----------------------------------|------------------------| 
|-19--------------------------------------------|------------------------| 
|-----------------------------------------------|------------------------| 
 
 
  E 
   |    ||| |    || |  |    |    |    |    |    |    |    | 
   o    /// /    // /  /    /    /    /    /    /    /    / 
 
|-22b24----22b24---20-22-20--19-22-20--19-20-19--17-20-19--17-| 
|-------------------------------------------------------------| 
|-------------------------------------------------------------| 
|-------------------------------------------------------------| 
|-------------------------------------------------------------| 
|-------------------------------------------------------------| 
 
 
   |  |  |  |  |  |  |     |  |   | |  |  |  |  |  | 
   /  /  /  /  /  /  /     /  /   / /  /  /  /  /  / 
 
|-19-17-15-19-17-15-17b19===(17)r--15-17-15-17-15-14-| 
|----------------------------------------------------| 
|----------------------------------------------------| 
|----------------------------------------------------| 
|----------------------------------------------------| 
|----------------------------------------------------| 
 
 
  B 
    |  |||||||  |  |||||| |   | | | | | | | | | | | | | |   |  | 
    o  ///////  /  ////// /   / / / / / / / / / / / / / /   /  / 
 
    \7                  | 
                        PM----------------------------~ 
|---------------------------|-----------------------------------| 
|---------------------------|-----------------------------------| 
|-<16>--------(16)----------|-----------------------------------| 
|-<17>--------(17)----------|-----------------------------------| 
|---------------------------|-----------------------------------| 
|-----------------------7-7-|-7-7-5-5-5-5-3-3-3-3-2-2-2--/(12)--| 
 
 
  E 
   |    ||||||| |    ||| |    |||   |    || |   |   | || | ||||||| 
   o    /////// /    /// /    ///   /    // /   /   / // / /////// 
 
                                                         ~~ 
|-17b19--------------------------|--------------------------------| 
|--------------17b19-------------|--------------------------------| 
|-----------------------16b18----|-14b16---14-(14)-12-------------| 
|--------------------------------|----------------------14--------| 
|--------------------------------|--------------------------------| 
|--------------------------------|--------------------------------| 
 
 
  B                                         A      B 
   |  |  | |   |   | | |   |   | | |   |   | |     | 
   o  /  / /   /   / / /   /   / / /   /   / o     o 
 
|---------------------------------------------------| 
|---------------------------------------------------| 
|-------------------------------11--12--14--14b16===| 
|-------------------10--12--14----------------------| 
|-------10--12--14----------------------------------| 
|-12-14---------------------------------------------| 
 
 
  C           B             A      G 
    |         |               |    | 
    o         o               o    o 
 
                              ~~~~~ 
|-------------------------------------| 
|-------------------------------------| 
|-(14)r-14b16--14b16-14b16==(14)r-----| 
|-------------------------------------| 
|-------------------------------------| 
|-------------------------------------| 
 
 
  B          A       G       F# 
  |          |       |       | 
  o          o       o       o 
 
  \1.5 
|-8p===5h8p5h8p5h8p5h8p5h8p5h8p5h8p5-| 
|------------------------------------| 
|------------------------------------| 
|------------------------------------| 
|------------------------------------| 
|------------------------------------| 
 
 
  A 
   |    |    |    |    |    |    |    |    |    |    |    |    |    |    |    | 
   o    /    /    /    /    /    /    /    /    /    /    /    /    /    /    / 
 
|-20-19--17-20-19--17-20-19--17-20-19--17-20-19--17-20-19--17-20-19--17-20-19--17--| 
|----------------------------------------------------------------------------------| 
|----------------------------------------------------------------------------------| 
|----------------------------------------------------------------------------------| 
|----------------------------------------------------------------------------------| 
|----------------------------------------------------------------------------------| 
 
 
  A 
   |    |    |    |    |    |    |    |    |    |    |    |    |    |    |    | 
   o    /    /    /    /    /    /    /    /    /    /    /    /    /    /    / 
 
|-20-19--17-20-19--17-20-19--17-20-19--17-20-19--17-20-19--17-20-19--17-20-19--17-| 
|---------------------------------------------------------------------------------| 
|---------------------------------------------------------------------------------| 
|---------------------------------------------------------------------------------| 
|---------------------------------------------------------------------------------| 
|---------------------------------------------------------------------------------| 
 
 
  E 
  |    ||||||||||||||| 
  o    /////////////// 
 
  \0.5 
  ~~~~ 
|-0--------------------| 
|----------------------| 
|----------------------| 
|----------------------| 
|----------------------| 
|----------------------| 
 
 
  E                     A 
    |  |||||||||||||||   | ||||| | | | |||||||  | ||||| | | | ||||||| 
    o  ///////////////   o ///// / / / ///////  / ///// / / / /////// 
 
    \1 
                         ~~          ~~~~~~~~~~~~~          ~~ 
|-<12>----------------|-----------------------|----------------------| 
|---------------------|-13------12------------|----------------------| 
|---------------------|-------------14--------|-9--------------------| 
|---------------------|-----------------------|--------12--10--------| 
|---------------------|-----------------------|----------------------| 
|---------------------|-----------------------|----------------------| 
 
 
  B 
  | |||||||||||||||   | 
  o ///////////////   / 
 
  ~ 
|------------------|-12-12-12-12-14-14-14-14-15-15-15-15-17-17-17-17-| 
|------------------|-------------------------------------------------| 
|------------------|-------------------------------------------------| 
|-9----------------|-------------------------------------------------| 
|------------------|-------------------------------------------------| 
|------------------|-------------------------------------------------| 
 
 
                           ~~ 
|-15-15-15-15-17-17-17-17-19----|| 
|-------------------------------|| 
|-------------------------------|| 
|-------------------------------|| 
|-------------------------------|| 
|-------------------------------|| 
 
 
   3rd Verse 
    E5 
      ~~~~ 
||--(19)-------------------------|----------------------------| 
||o------------------------------|----------------------------| 
||-------------------------------|----------------------------| 
||-------------------------------|----------------------------| 
||o------------------------------|----------------------------| 
||-------------------------------|----------------------------| 
| 
|   Gtr I 
|        PM----|   PM----|   PM|     PM----|   PM----|   PM| 
||-------------------------------|----------------------------| 
||o------------------------------|----------------------------| 
||-------------------------------|----------------------------| 
||----9----------9---------9-----|-9---------9---------9------| 
||o---7----------7---------7-----|-7---------7---------7------| 
||-------0-0-0-0---0-0-0-0---0-0-|---0-0-0-0---0-0-0-0---0-0--| 
 
 
  B5 
    PM----|   PM----|   PM|     PM----|   PM----|   PM| 
|---------------------------|---------------------------| 
|---------------------------|---------------------------| 
|---------------------------|---------------------------| 
|---------------------------|---------------------------| 
|-9---------9---------9-----|-9---------9---------9-----| 
|-7-7-7-7-7-7-7-7-7-7-7-7-7-|-7-7-7-7-7-7-7-7-7-7-7-7-7-| 
 
 
  E5 
    PM----|   PM----|   PM|     PM----|   PM----|   PM| 
|---------------------------|---------------------------| 
|---------------------------|---------------------------| 
|---------------------------|---------------------------| 
|-9---------9---------9-----|-9---------9---------9-----| 
|-7---------7---------7-----|-7---------7---------7-----| 
|---0-0-0-0---0-0-0-0---0-0-|---0-0-0-0---0-0-0-0---0-0-| 
 
 
  B5 
    PM----|   PM----|   PM|   ~        ~            ~ 
|---------------------------|--------------||-------------|| 
|---------------------------|-------------o||-------------|| 
|---------------------------|--------------||-------------|| 
|-4---------4---------4-----|--------------||-------------|| 
|-2-2-2-2-2-2-2-2-2-2-2-0-2-|-3--2--0-----o||-2--0--------|| 
|---------------------------|----------3---||-------3--2--|| 
 
 
 Chorus 
  E5 
    PM----|   PM----|   PM|     PM----|   PM----|   PM| 
|---------------------------|---------------------------| 
|---------------------------|---------------------------| 
|---------------------------|---------------------------| 
|-9---------9---------9-----|-9---------9---------9-----| 
|-7---------7---------7-----|-7---------7---------7-----| 
|---0-0-0-0---0-0-0-0---0-0-|---0-0-0-0---0-0-0-0---0-0-| 
 
 
  C5   G5     D5   E5 
                            PM----|   PM----|   PM| 
|-----------|-----------|---------------------------| 
|-----------|-----------|---------------------------| 
|-5---------|-7----9----|---------------------------| 
|-5----5----|-7----9----|-9---------9---------9-----| 
|-3----5----|-5----7----|-7---------7---------7-----| 
|------3----|-----------|---0-0-0-0---0-0-0-0---0-0-| 
 
 
  E5                            C5   G5     D5   E5 
    PM----|   PM----|   PM| 
                                                       4x 
|---------------------------||------------|------------|| 
|---------------------------||o-----------|-----------o|| 
|---------------------------||--5---------|-7----9-----|| 
|-9---------9---------9-----||--5----5----|-7----9-----|| 
|-7---------7---------7-----||o-3----5----|-5----7----o|| 
|---0-0-0-0---0-0-0-0---0-0-||-------3----|------------|| 
 
 
  C5   G5     D5 
|-----------|----------|| 
|-----------|----------|| 
|-5---------|-7--------|| 
|-5----5----|-7--------|| 
|-3----5----|-5--------|| 
|------3----|----------|| 
 
 
 Outro 
                 E5       D5         C5       B5 
|------------||--------------------|------------------| 
|------------||o-------------------|------------------| 
|------------||--12-------11-------|--9-------8-------| 
|------------||--12-------12-------|-10-------9-------| 
|------------||o-------------------|------------------| 
|------------||--------------------|------------------| 
| 
| Gtr I 
|        PM|          PM|      PM|        PM|     PM| 
|------------||--------------------|------------------| 
|------------||o-------------------|------------------| 
|------------||--------------------|------------------| 
|------------||---9--------7-------|--5-------4-------| 
|------------||o--7--------5-------|--3-------2-------| 
|--------0-0-||-------0-0------0-0-|------0-0-----0-0-| 
 
 
  1.,2.                                                     3. 
  E5                                                        A5      G5 
|---------------------------|----------------------------||------------------| 
|---------------------------|---------------------------o||------------------| 
|-9-------------------------|----------------------------||-5-------4--------| 
|-9-------------------------|----------------------------||-7-------5--------| 
|---------------------------|---------------------------o||------------------| 
|---------------------------|----------------------------||------------------| 
| 
|   PM----|   PM----|   PM|     PM----|   PM----|   PM|         PM|     PM| 
|---------------------------|----------------------------||------------------| 
|---------------------------|---------------------------o||------------------| 
|---------------------------|----------------------------||------------------| 
|-9---------9---------9-----|-9---------9---------9------||-2----------------| 
|-7---------7---------7-----|-7---------7---------7-----o||-0-------5--------| 
|---0-0-0-0---0-0-0-0---0-0-|---0-0-0-0---0-0-0-0---0-0--||-----0-0-3---0-0--| 
 
 
                 H.=H                              Q=46 
  F5      A5     B5 
|--------------|-----------------|-------------------| 
|--------------|-----------------|-------------------| 
|-2-------2----|-4---------------|-(4)---------------| 
|-3-------2----|-4---------------|-(4)---------------| 
|--------------|-----------------|-------------------| 
|--------------|-----------------|-------------------| 
| 
|     PM|        PM--------------------------------| 
|--------------|-----------------|-------------------| 
|--------------|-----------------|-------------------| 
|--------------|-----------------|-------------------| 
|---------2----|-4-4-4-4-4-4-4-4-|--4--4-4-4-4-4-4-4-| 
|-3-------0----|-2-2-2-2-2-2-2-2-|--2--2-2-2-2-2-2-2-| 
|-1---0-0------|-----------------|-------------------| 
 
 
  Q=154 
|------------|-----------|-----------|-----------|----------| 
|------------|-----------|-----------|-----------|----------| 
|------------|-----------|-----------|-----------|----------| 
|-(4)--------|-----------|-----------|-----------|----------| 
|-(2)--------|-2----3----|-0----2----|-3----0----|-2--3--0--| 
|------------|-----------|-----------|-----------|----------| 
 
 
|----------|----------|-------------|-------------|---------------| 
|----------|----------|-------------|-------------|---------------| 
|----------|----------|-------------|-------------|---------------| 
|----------|----------|-------------|-------------|---------------| 
|-2--3--0--|-2--3--0--|-2--3--0--2--|-3--0--2--3--|-0--2--3--0----| 
|----------|----------|-------------|-------------|---------------| 
 
 
|-------------|-------------|-------------| 
|-------------|-------------|-------------| 
|-------------|-------------|-------------| 
|-------------|-------------|-------------| 
|-2-3-0-2-3-0-|-2-3-0-2-3-0-|-2-3-0-2-3-0-| 
|-------------|-------------|-------------| 
 
 
|-------------------------|--------------------------| 
|-------------------------|--------------------------| 
|-------------------------|--------------------------| 
|-------------------------|--------------------------| 
|-2-3-0-2-3-0-2-3-0-2-3-0-|-2-3-0-2-3-0-2-3-0-2-3-0--| 
|-------------------------|--------------------------| 
 
 
|-------------------------|---------------------------------| 
|-------------------------|---------------------------------| 
|-------------------------|---------------------------------| 
|-------------------------|---------------------------------| 
|-2-3-0-2-3-0-2-3-0-2-3-0-|-2-3-0-2-3-0-2-3-0-2-3-0-2-3-0-2-| 
|-------------------------|---------------------------------| 
 
 
|---------------------------------|----------------------------------| 
|---------------------------------|----------------------------------| 
|---------------------------------|----------------------------------| 
|---------------------------------|----------------------------------| 
|-3-0-2-3-0-2-3-0-2-3-0-2-3-0-2-3-|-0-2-3-0-2-3-0-2-3-0-2-3-0-2-3-0--| 
|---------------------------------|----------------------------------| 
 
 
|-------------------------------------------------| 
|-------------------------------------------------| 
|-------------------------------------------------| 
|-------------------------------------------------| 
|-2-3-0-2-3-0-2-3-0-2-3-0-2-3-0-2-3-0-2-3-0-2-3-0-| 
|-------------------------------------------------| 
 
 
|--------------------------------------------------| 
|--------------------------------------------------| 
|--------------------------------------------------| 
|--------------------------------------------------| 
|-2-3-0-2-3-0-2-3-0-2-3-0-2-3-0-2-3-0-2-3-0-2-3-0--| 
|--------------------------------------------------| 
 
 
                                                              E5 
|-------------------------------------------------|---------|------*| 
|-------------------------------------------------|---------|------*| 
|-------------------------------------------------|---------|------*| 
|-------------------------------------------------|---------|-2----*| 
|-2-3-0-2-3-0-2-3-0-2-3-0-2-3-0-2-3-0-2-3-0-2-3-0-|---------|-2----*| 
|-------------------------------------------------|---------|-0----*| 
 
Check the solo, i think its bad :)) 
 
Tablature Legend 
---------------- 
 h   - hammer-on 
 p   - pull-off 
 b   - bend 
 pb  - pre-bend 
 r   - bend release (if no number after the r, then release immediately) 
 /\  - slide into or out of (from/to "nowhere") 
 s   - legato slide 
 S   - shift slide 
  - natural harmonic 
{n}  - artificial harmonic 
n(n) - tapped harmonic 
 ~   - vibrato 
 tr  - trill 
 T   - tap 
 TP  - trem. picking 
 PM  - palm muting 
\n/  - tremolo bar dip; n = amount to dip 
 \n  - tremolo bar down 
 n/  - tremolo bar up 
/n\  - tremolo bar inverted dip 
 =   - hold bend; also acts as connecting device for hammers/pulls 
 <>  - volume swell (louder/softer) 
 x   - on rhythm slash represents muted slash 
 o   - on rhythm slash represents single note slash 
 
Misc Legend 
----------- 
 |  - bar 
||  - double bar 
||o - repeat start 
o|| - repeat end 
*|  - double bar (ending) 
 :  - bar (freetime) 
 $  - Segno 
 &  - Coda 
		  

Full key step upFull key step up
Half key step upHalf key step up
Half key step downHalf key step down
Full key step downFull key step down
auto scroll beats size up size down change color hide chords drawings
tab show chords e-chords YouTube Clip e-chords hide all tabs e-chords go to top tab

share