Mano Negra

Mano Negra

Mano Negra

tabs

by  GUSTSILVA

save to print version add songbook text version e-mail correct tuner
chordsukulelecavacokeyboardtabbassdrumsharmonicaflute Guitar Pro
close

there isn't a video lesson for this song

chords

Mano Negra

	  		Intro 
e|----------------------------------------------------|-------|-------|-------| 
B|----------------------------------------------------|-------|-------|-------| 
G|--------------6-----6-----6-----6-----6-----6-------|--6L---|--6----|-------| 
D|--------------7-----7-----7-----7-----7-----7-------|--7L---|--7----|-------| 
A|--------------7-----7-----7-----7-----7-----7-------|--7L---|--7----|-------| 
E|--------------5-----5-----5-----5-----5-----5-------|--5L---|--5----|-------| 

   Riff 
e|----------------------------------------------------|  
B|--------------------------------8-----5-------------| 
G|--------------------5-----7-----------------5-------| 
D|--7-----7--7--7-------------------------------------| 
A|----------------------------------------------------| 
E|----------------------------------------------------| x5 


e|-------|-------|-------| 
B|-------|-------|-------| 
G|-------|-------|-------| 
D|-------|-------|-------| 
A|-------|-------|-------| 
E|-------|-------|-------| 

e|----------------------------------------------------|  
B|--------------------------------8-----5-------------| 
G|--------------------5-----7-----------------5-------| 
D|--7-----7--7--7-------------------------------------| 
A|----------------------------------------------------| 
E|----------------------------------------------------| x4 

e|-------|-------| 
B|-------|-------| 
G|-------|-------| 
D|-------|-------| 
A|-------|-------| 
E|--5L---|--5----| 


e|----------------------------------------------------|  
B|--------------------------------8-----5-------------| 
G|--------------------5-----7-----------------5-------| 
D|--7-----7--7--7-------------------------------------| 
A|----------------------------------------------------| 
E|----------------------------------------------------| x4 

e|----------------------------------------------------|----------| 
B|--------------------------------8-----5-------------|----------| 
G|--------------------5-----7-----------------5-------|----------| 
D|--7-----7--7--7-------------------------------------|--7--7----| 
A|----------------------------------------------------|--7--7----| 
E|----------------------------------------------------|--5--5----| 


e|----------------------------------------------------|-------------| 
B|--------------------------------8-----5-------------|-------------| 
G|--------------------5-----7-----------------5-------|-------------| 
D|--7-----7--7--7-------------------------------------|--7--7--7----| 
A|----------------------------------------------------|--7--7--7----| 
E|----------------------------------------------------|--5--5--5----| 


e|----------------------------------------------------|----------------------------| 
B|--------------------------------8-----5-------------|----------------------------| 
G|--------------------5-----7-----------------5-------|----------------------------| 
D|--7-----7--7--7-------------------------------------|--7--7--7--7--7--7--7--7----| 
A|----------------------------------------------------|--7--7--7--7--7--7--7--7----| 
E|----------------------------------------------------|--5--5--5--5--5--5--5--5----| 


e|----------------------------------------------------|  
B|--------------------------------8-----5-------------| 
G|--------------------5-----7-----------------5-------| 
D|--7-----7--7--7-------------------------------------| 
A|----------------------------------------------------| 
E|----------------------------------------------------| x9 

  
e|----------| 
B|----------| 
G|----------| 
D|--7--7----| 
A|--7--7----| 
E|--5--5----| 
		  

auto scroll beats size up size down change color hide chords drawings
tab show chords e-chords YouTube Clip e-chords hide all tabs e-chords go to top tab

share