Manifest

You Can't Hide

Manifest

tabs

by  TARIKIKE

save to print version add songbook text version e-mail correct tuner
chordsukulelecavacokeyboardtabbassdrumsharmonicaflute Guitar Pro
close

there isn't a video lesson for this song

chords

You Can't Hide

	  		(h) Hammer On  (p) Pull Off  (v) Vibrato 


Riff 1	x3 
E|--------------------------------|-----------------------------------|-- 
B|--------------------------------|-----------------------------------|-- 
G|--------------------------------|-----------------------------------|-- 
D|--------------------------------|-----------------------------------|-- 
A|-----------------------------4--|-----------------------------4--5--|-- 
E|--0--2--3--0--2--3--0--2--3--2--|--0--2--3--0--2--3--0--2--3--2--3--|-- 


Riff 2 
E|--------------------------------|-----------------------------------|-- 
B|--------------------------------|-----------------------------------|-- 
G|--------------------------------|-----------------------------------|-- 
D|--------------------------------|--------------------------------4--|-- 
A|-----------------------------4--|-----------------------------4--2--|-- 
E|--0--2--3--0--2--3--0--2--3--2--|--0--2--3--0--2--3--0--2--3--2-----|-- 


Riff 3 
E|--------------------------------------|-- 
B|--------------------------------------|-- 
G|--------------------------------------|-- 
D|--5--4--2-----------------------------|-- 
A|-----------5--3--2--5--3--2-----------|-- 
E|-----------------------------3--2--0--|-- 


Riff 4	x4 
E|------------------------------------|-----------------------------------|-- 
B|------------------------------------|-----------------------------------|-- 
G|------------------------------------|-----------------------------------|-- 
D|------------------------------------|-----------------------------------|-- 
A|--------------------------7h9--7h9--|--------------------------7h9--5v--|-- 
E|--0--0--0--0--0--0--0--0------------|--0--0--0--0--0--0--0--0-----------|-- 


Riff 5	x2 
E|--------------------------------------|-----------------------------------|-- 
B|--------------------------------------|-----------------------------------|-- 
G|--------------------------------------|-----------------------------------|-- 
D|--------------------------9h10--9h10--|--------------------------9h10--7--|-- 
A|--------------------------0-0---0-0---|--------------------------0-0---0--|-- 
E|--0--0--0--0--0--0--0--0--------------|--0--0--0--0--0--0--0--0-----------|-- 


Riff 4	x2 


Riff 6	x4 
E|------------------------------------|-----------------------------|-- 
B|------------------------------------|-----------------------------|-- 
G|------------------------------------|-----------------------------|-- 
D|------------------------------------|--------------------------4--|-- 
A|------------------------------------|--------------------------2--|-- 
E|--0--0--0--0--0--0--0--0--2p0--3p0--|--0--0--0--0--0--0--0--0-----|-- 
                           "You  will..."                       "Die!" 

Riff 3 

Riff 4	x4 

Riff 5	x2 

Riff 4	x2 

Riff 6	x4 

Riff 3 


Riff 7	Solo 
E|--------------------------------|--------------------------------|-- 
B|--------------------------------|--------------------------------|-- 
G|--------------------------------|--------------------------------|-- 
D|--------------------------9--9--|--------------------------9--7--|-- 
A|--------------------------7--7--|--------------------------7--5--|-- 
E|--0--0--0--0--0--0--0--0--------|--0--0--0--0--0--0--0--0--------|-- 

Riff 8 
E|----------------------|-- 
B|----------------------|-- 
G|----------------------|-- 
D|----------5------4----|-- 
A|----------3------2----|-- 
E|----------------------|-- 

Riff 9	x2 
E|--------------------------------|-- 
B|--------------------------------|-- 
G|--------------------------------|-- 
D|--------------------------------|-- 
A|-----------------------------2--|-- 
E|--3--2--0--3--2--0--3--2--0--0--|-- 
   "Soon     you      will     die!" 

Riff 10	x2 
E|--------------------------------|-- 
B|--------------------------------|-- 
G|--------------------------------|-- 
D|-----------------------------4--|-- 
A|--5--3--2--5--3--2--5--3--2--2--|-- 
E|--------------------------------|-- 
   "You      just     can't    hide!" 

Riff 9	x2 

Riff 10	x2 

Riff 11 
E|-----------------------------------------|-- 
B|-----------------------------------------|-- 
G|-----------------------------------------|-- 
D|--5--4--2--------------------------------|-- 
A|-----------5--3--2--5--3--2-----------2--|-- 
E|-----------------------------5--3--2--0--|-- 
		  

auto scroll beats size up size down change color hide chords drawings
tab show chords e-chords YouTube Clip e-chords hide all tabs e-chords go to top tab

share