Manal

Avenida Rivadavia

Manal

tabs

by  GUSTSILVA

save to print version add songbook text version e-mail correct tuner
chordsukulelecavacokeyboardtabbassdrumsharmonicaflute Guitar Pro
close

there isn't a video lesson for this song

chords

Avenida Rivadavia

	  		cerca del minuto 1:30 

E-------------------------------- 
B-------------------------------- 
G-18-16-18-18-------------------- 
D--------------16-14----14-16---- 
A--------------------16-------16- 
E-------------------------------- 

E-------------------------------------------------12- 
B-------------------------------------------------12- 
G-21-18------------------18-------------------------- 
D-------16-18-----17b-18----14h16p14--------14-16---- 
A-------------16---------------------16-14----------- 
E---------------------------------------------------- 

E-9-12-9----------------------------------------- 
B--------12-9h10p9----9-------------------------- 
G------------------11---11-9-11-9--------------9- 
D---------------------------------11--11-9-11b--- 
A------------------------------------------------ 
E------------------------------------------------ 

E-------------------------------------------------- 
B-------------------------------------------------- 
G--------9-11-9----11-9----------9-9-9-------9-9-9- 
D-9-9h11--------11------11--9-11--------9-11------- 
A-------------------------------------------------- 
E-------------------------------------------------- 

E------------------------------ 
B------------------------------ 
G------9-11b-9-11b-9-11b-9-11b- 
D-9-11------------------------- 
A------------------------------ 
E------------------------------ 
		  

auto scroll beats size up size down change color hide chords drawings
tab show chords e-chords YouTube Clip e-chords hide all tabs e-chords go to top tab

share