Maná

Oye Mi Amor

Maná

tabs Expert expert

by  DRKBLAZE

save to print version add songbook text version e-mail correct tuner
chordsukulelecavacokeyboardtabbassdrumsharmonicaflute Guitar Pro
close

there isn't a video lesson for this song

chords

Oye Mi Amor

Year: 1994 - Album: MTV Unplugged

	  		Chords 
  1     2 
  Bm    Bm    F#m         D          A         G 
e-7-----2-------9-----------10---------5---------3-----| 
b-7-----x-3-----x-10--------10---------5---------3-----| 
g-7-----x-4-----x-11--------x--11------x-6-------x-4---| 
d-x-9---x-4-----x-11--------x--12------x-7-------x-5---| 
a-x-9---2-------9-----------x--12------x-7-------x-5---| 
e-7-----x-------x-----------10---------5---------3-----| 
 
x = Palm the chord 
 
 
INTRO 
 
Part1 
Play the Bm chord the first way i showed you 
--x-x-Bm---x-x-Bm--x-x-Bm---x-x-F#m  >X7- 
Part2 
Eighth time is like this 
--x-x-Bm---x-x-Bm--D-D-D--F#m-F#m-F#m 
 
 
While he sings it goes like this 
Play the Chords then RIFFA 4 times 
--x-x-Bm---x-x-Bm---x-x-Bm---x-x-A- 
 
 
RIFF A 
e----------7------------------------------------------| 
b------------7--------------------7--8----------------| 
g-----7--------8~------------7----------6~------------| 
d---9---9------------------9---9----------------------| 
a-----------------------------------------------------| 
e-----------------------------------------------------| 
 
Play at 00:45 
RIFF A Plus CHORDS 
e----------7-----------D-D-D---------------| 
b------------7-----------------F#m-F#m-F#m-| 
g-----7--------8~--------------------------| 
d---9---9----------------------------------| 
a------------------------------------------| 
e------------------------------------------| 
 
after  play, the chords and riff-A 7 times 
 
 
-Chorus- 
This part is very tricky so practice it! 
--x-x-A---x-x-A---x-x-A---x-x-A---x-x-Bm 
the riffs are different the first time form the second time 
 
RIFF B 
First time 
            e---------------------------------------------------------| 
            b--12/10--7----12/10--7--6--7---12/10---7-----------------| 
            g--11/9---7----11/9---7--6--7---11/9----7-----------------| 
            d---------------------------------------------------------| 
            a---------------------------------------------------------| 
            e---------------------------------------------------------| 
 
Play the A to Bm chords between the riffs 
 
Second time 
            e------------------------------------------------------------| 
            b--12/10--7----12/10--7--6/7--7------------------------------| 
            g--11/9---7----11/9---7--6/7--7------------------------------| 
            d------------------------------------------------------------| 
            a------------------------------------------------------------| 
            e------------------------------------------------------------| 
 
Play the Bm in the second positin i showed you 
--x-x-A---x-x-A---x-x-A---x-x-A---x-x-G---x-x-G---x-x-Bm---x-x-Bm-A- 
 
play on the lower E string 
E---3333-6p3-2/5------ 
 
RIFF C 
e------------------------| 
b--12/10--7----12/10--7--| 
g--11/9---7----11/9---7--| 
d------------------------| 
a------------------------| 
e------------------------| 
 
RIFF D 
Play this 5times 
e--------------------------------------------7----------------| 
b--77-88-77-----77-10-10-8-7-----77-88-77-------10-8-7--------| 
g-------------------------------------------------------------| 
d-------------------------------------------------------------| 
a-------------------------------------------------------------| 
e-------------------------------------------------------------| 
 
 
you can either play the riff on top or these chords 
(the A# and the 2nd A chord are only transition chords so play them quickly. they are  
not play the last time this part happens) 
 
  D---A--A#--Bm--G---A---| 
e-5---5--6---7---3---5---| 
b-7---5--6---7---3---5---| 
g-7---6--7---7---4---6---| 
d-7---7--8---9---5---7---| 
a-5---7--8---9---5---7---| 
e-x---5--6---7---3---5---| 
 
 
e----------------------------------------------------------| 
b----------------------------------------------------------| 
g----------11---------------12-----------------------------| 
d---9--12-----------------------12--9----------------------| 
a----------------------------------------------------------| 
e----------------------------------------------------------| 
 
the last time RIFF D happens it goes like this 
 
e-------------------------------------------------------------| 
g--77--88--77----77-88-77-----77-10-10-8-7-----77-10-10-8-7---| 
b-------------------------------------------------------------| 
d-------------------------------------------------------------| 
a-------------------------------------------------------------| 
e-------------------------------------------------------------| 
 
The last part of the song is just palmed Bm and A# chords 
 

		  

Full key step upFull key step up
Half key step upHalf key step up
Half key step downHalf key step down
Full key step downFull key step down
auto scroll beats size up size down change color hide chords drawings
tab show chords e-chords YouTube Clip e-chords hide all tabs e-chords go to top tab

share