Mamonas Assassinas

Robocop Gay Tab

Mamonas Assassinas

Difficulty: AdvancedAdvanced

by Lissa

tuner correct add songbook print version text version save to e-mail
chordsukuleleukulelecavacokeyboardtabbassdrumsharmonicsflute Guitar Pro
close

there isn't a video lesson for this song

request
chords

Robocop Gay

Year: 2006 - Album: Mamonas Assassinas ao Vivo

  		Intro: Riff 1 (2x) Riff 2 (3x) Riff 3 
 
1ª Parte:  
Um tanto quanto másculo,Ai com "M" maísculo, 
Vejam só os meus músculos, que com amor cultivei... 
Minha pistola é de plástico, com formato cilíndrico 
Sempre me chamam de cínico, mas o por que eu não sei... 
O meu bumbum era flácido, mas esse assunto é tão místico 
Devido a um ato cirúrgico, eu hoje me transformei... 
O meu andar é erótico, com movimento atômicos, 
Soy um amante robótica com direito a replay... 
Um ser humano fantástico, com poderes titânicos, 
Foi um moreno simpático por quem me apaixonei... 
Hoje eu estou tão "eufavico", com mil pedaços piores, 
Ontem eu era católico, aí hoje eu sou um Gay... 
 
2ª Parte: 
Piri piri piri pipi piri...  Au um ai... 
Piri piri piri pipi piri... "Nesse gocu ú" 
Piri piri piri pipi piri... 
 
3ª Parte: 
(Solo) 
 
Abra sua mente, Gay também é gente, baiano fala oxente e como vatapá.. 
Você pode der gática, ser Funk ou "isquinred", é fiquei com Moramed nem tanto camuflado (Aqui eu não sei o que ele fala) 
Faça a minha barba, arranque meu bigode, gaúcho também pode não tem que disfarçar.. 
Faça uma plástica, aí entre na ginastica boneca cibernética o robocop Gay... 
O robocop Gay... o robocop Gay... AAAAHHHH eu sei eu sei o robocop gay...   (Final) 
 
Riff 1  
G|------------2----|   
D|-----2--5-----5-|   
A|--3--------------|   
E|------------------|  
 
Riff 2 
G|------------------| 
D|------------2-----| 
A|------2--5-----5-| 
E|--3---------------| 
 
Riff 3 
G|--------------------------------| 
D|-------------2------------------| 
A|------2--5-----5---3-3-3/15--| 
E|---3----------------------------| 
 
1ª Parte: {Riff 1 (2x) Riff 2 (3x) Riff 3} >6X 
 
2ªParte: 
G|-------------------------| 
D|-------------------------| 
A|----3-3-3-3-3--------3-| 
E|-----------------3--5----| 
 
3ª Parte: 
G|-------------------------------------------------------------------------------------------------| 
D|-------------------------------------------------------------------------------------------------| 
A|----3-3-3-3-3-3-3-3-3-3-3-3-----------------------------------------------------------------| 
E|-----------------------------------3-3-3-3-3-3-3-3-3-3-3-3---5-5-5-5-5-5-5-5-5-5-5-5-1-| 
 
G|---------------------------- 
D|---------------------------- 
A|---------------------------- 
E|--1-1-1-1-1-1-1-1-1-1-1- 
 
Final: 
G|------------| 
D|------------| 
A|----3-3-3--| 
E|------------| 
 
Eu recomendo que ouçam a música p/ pegar bem a batida!! 
	  

Search Paypal
auto scroll beats size up size down change color hide chords drawings
tab show chords e-chords YouTube Clip e-chords hide all tabs e-chords go to top tab

share with facebook