Mami Kawada

Joint

Mami Kawada

tabs Expert expert

by  TARIKIKE

save to print version add songbook text version e-mail correct tuner
chordsukulelecavacokeyboardtabbassdrumsharmonicaflute Guitar Pro
close

there isn't a video lesson for this song

chords

Joint

	  		LEGEND: 
PM - Palm Mute 
*  - Artificial Harmonics 
X  - Dead/Muted String 

DROP D TUNING 

NOTE:this is an easy song the only thig that its difficult its the  artificial armonic i  
do it right yet =P 

INTRO I: 

|----------------------------------------------------------------| 
|----------------------------------------------------------------| 
|----------------------------------------------------------------| 
|----------------------------------------------------------------| 
|---------------5*---------------------------5*------------------| 
|-0-2-2--5-2--------5-7-8-7-5-7-0-2-2--5-2--------5-7-8-7-5--0-2-| 

                                                          PM--| 
|---------------------------------------------------------------| 
|---------------------------------------------------------------| 
|---------------------------------------------------------------| 
|---------------------------------------------------------------| 
|----------5*--------------------------5--7--8-7--5--7--2-2-2-2-| 
|-2--5-2-------5-7-8-7-5-7-0-2-2--5-2--5--7--8-7--5--7--2-2-2-2-| 


  PM----------------------------------------------------------------| 
|-------------------------------------------------------------------| 
|-------------------------------------------------------------------| 
|-------------------------------------------------------------------| 
|-------7--7-7-7-2-2-2-2---------------5--5-5-5-7-7-7-7--2-2-2-2----| 
|-5-5-5-5--5-5-5-0-0-0-0-2-2-2-2-5-5-5-3--3-3-3-5-5-5-5--2-2-2-2----| 
|-5-5-5------------------2-2-2-2-5-5-5-------------------2-2-2-2----| 


  PM-------------------------------------------------------| 
|----------------------------------------------------------| 
|----------------------------------------------------------| 
|----------------------------------------------------------| 
|-------7--7-7-7-2-2-2-2---------------5--5-5-5-7-7-7-7----| 
|-5-5-5-5--5-5-5-0-0-0-0-2-2-2-2-5-5-5-3--3-3-3-5-5-5-5----| 
|-5-5-5------------------2-2-2-2-5-5-5---------------------| 


INTRO II: 


|--------------------------------------------------------------------------| 
|--------------------------------------------------------------------------| 
|-9-9-9-9-9-9-9-9-9-9-9-12--12-11-11-9-9-9-9-9-9-9-9-9-9-9-14--14-12-12----| 
|--------------------------------------------------------------------------| 
|-7-7-7-7-7-7-7-7-7-7-7-10--10--9--9-7-7-7-7-7-7-7-7-7-7-7-12--12-10-10----| 
|--------------------------------------------------------------------------| 


|--------------------------------------------------------------------------| 
|--------------------------------------------------------------------------| 
|-9-9-9-9-9-9-9-9-9-9-9-12--12-11-11-9-9-9-9-9-9-9-9-9-9-9-14--14-12-12----| 
|--------------------------------------------------------------------------| 
|-7-7-7-7-7-7-7-7-7-7-7-10--10--9--9-7-7-7-7-7-7-7-7-7-7-7-12--12-10-10----| 
|--------------------------------------------------------------------------| 

VERSE 1: 

|-0---------5---------7-------------------------------| 
|----3----------3---------5---------------------------| 
|--------0--------------------5--12---11---12---14----| 
|--------------------------------X----X----X----X-----| 
|--------------------------------10---9----10---12----| 
|-----------------------------------------------------| 


      PM----------------------|    PM--------------------------------| 
|--------------------------------------------------------------------| 
|--------------------------------------------------------------------| 
|------------------------------------------------------7--5-----4----| 
|------------------------------------------------------------7-------| 
|--2--2-2-2-2-2-2-2-2-2-2-2-2-2-5--5-5-5-5-5-5-5-5-5-5---------------| 
|--2--2-2-2-2-2-2-2-2-2-2-2-2-2-5--5-5-5-5-5-5-5-5-5-5---------------| 


  PM------------------------------------------------------------------| 
|---------------------------------10-----10-----10-----10-----10------| 
|-----------------------------7-8----7-8----7-8----7-8----7-8---------| 
|---------------------------------------------------------------------| 
|-5-5-5-5-5-5-5-5-5-5-5-5-5-5-----------------------------------------| 
|-3-3-3-3-3-3-3-3-3-3-3-3-3-3-----------------------------------------| 
|---------------------------------------------------------------------| 

PRE-CHORUS: 

		       PM---| 
|------------------------------------------------------------------| 
|------------------------------------------------------------------| 
|------------------------------------------------------------------| 
|------------------------------------------------------0*--0*--0*--| 
|-2-0-2--8--X--7---5---0-0-0-----2-0-2--7-8--7---5-----5*--5*--5*--| 
|-2-0-2--8--X--7---5---0-0-0-----2-0-2--7-8--7---5-----------------| 

		       PM---| 
|------------------------------------------------------------------| 
|------------------------------------------------------------------| 
|------------------------------------------------------------------| 
|-----------------------------5--5--5-5-5-7--7-7-7--7-7-7-4-4-4-4--| 
|-2-0-2--8--X--7---5---0-0-0--3--3--3-3-3-5--5-5-5--5-5-5-2-2-2-2--| 
|-2-0-2--8--X--7---5---0-0-0---------------------------------------| 


|-----------------------| 
|-----------------------| 
|-------Pick Slide------| 
|-4-4--/////////////----| 
|-2-2--/////////////----| 
|-----------------------| 


CHORUS: 

     PM--------|    PM--------|    PM--------|    PM-----------------|    PM 
|--------------------------------------------------------------------| 
|--------------------------------------------------------------------| 
|--------------------------------------------------------------------| 
|----------------5--5-5-5-5-5-5----------------7--7-7-7-7-7-7-9--9---| 
|-2--2-2-2-2-2-2-3--3-3-3-3-3-3-5--5-5-5-5-5-5-5--5-5-5-5-5-5-7--7---| 
|-2--2-2-2-2-2-2----------------5--5-5-5-5-5-5-----------------------| 

  PM------|    PM--------|    PM--------|    PM---------------| 
|-------------------------------------------------------------| 
|-------------------------------------------------------------| 
|-------------------------------------------------------------| 
|-9-9-9-9-9-5--5-5-5-5-5-5-2--2-2-2-2-2-2-4--4-4-4-4-4-4------| 
|-7-7-7-7-7-3--3-3-3-3-3-3-0--0-0-0-0-0-0-2--2-2-2-2-2-2------| 
|-------------------------------------------------------------| 

     PM--------|    PM--------|    PM--------|    PM-----------------|    PM 
|--------------------------------------------------------------------| 
|--------------------------------------------------------------------| 
|--------------------------------------------------------------------| 
|----------------5--5-5-5-5-5-5----------------7--7-7-7-7-7-7-9--9---| 
|-2--2-2-2-2-2-2-3--3-3-3-3-3-3-5--5-5-5-5-5-5-5--5-5-5-5-5-5-7--7---| 
|-2--2-2-2-2-2-2----------------5--5-5-5-5-5-5-----------------------| 

  PM------|    PM--------|    PM--------|    PM---------------| 
|-------------------------------------------------------------| 
|-------------------------------------------------------------| 
|-------------------------------------------------------------| 
|-9-9-9-9-9-5--5-5-5-5-5-5-2--2-2-2-2-2-2-4--4-4-4-4-4-4------| 
|-7-7-7-7-7-3--3-3-3-3-3-3-0--0-0-0-0-0-0-2--2-2-2-2-2-2------| 
|-------------------------------------------------------------| 


POST CHORUS: 


  PM-----------------------| 
|--------------------------| 
|--------------------------| 
|--------------------------| 
|--------------------------| 
|-2-2--2-2--2-2--2-2-------| 
|-2-2--2-2--2-2--2-2-------| 


|-----------------------------------------------| 
|-----------------------------------------------| 
|-----------------------------------------------| 
|-----------------------------------------------| 
|-2--2--5-2--5--7--8-7--5-7-2--2--5-2--0---0----| 
|-2--2--5-2--5--7--8-7--5-7-2--2--5-2--0---0----| 

VERSE 2: 


|--------------------------------------------------------------------------| 
|-7--7--8-8-8-8-8-8-8-8-8-8-8-8-8-8-7--7--8-8-8-8-8-8-8-8-8-8-8-8-8-8-7--8-| 
|-9--9--9-9-9-9-9-9-9-9-9-9-9-9-9-9-9--9--9-9-9-9-9-9-9-9-9-9-9-9-9-9-9--9-| 
|-9--9--9-9-9-9-9-9-9-9-9-9-9-9-9-9-9--9--9-9-9-9-9-9-9-9-9-9-9-9-9-9-9--9-| 
|--------------------------------------------------------------------------| 
|--------------------------------------------------------------------------| 


|----------------------------------------------------------| 
|-8-8-8-8-8-8-8-8-8-8-8-8-8-8------------------------------| 
|-9-9-9-9-9-9-9-9-9-9-9-9-9-9----12----11----12----14------| 
|-9-9-9-9-9-9-9-9-9-9-9-9-9-9----X-----X-----X-----X-------| 
|--------------------------------10----9-----10----12------| 
|----------------------------------------------------------| 


  PM|    PM|    PM|    PM|    PM|    PM|    PM|    PM|    PM| 
|---------------------------------------------------------------| 
|---------------------------------------------------------------| 
|---------------------------------------------------------------| 
|---------------------------------------------------------5-5-5-| 
|-2-2-2--2-2-2--2-2-2--2-2-2--5-5-5--5-5-5--5-5-5--5-5-5--3-3-3-| 
|-2-2-2--2-2-2--2-2-2--2-2-2--5-5-5--5-5-5--5-5-5--5-5-5--------| 


  PM|    PM|    PM| 
|--------------------------10-----10--| 
|----------------------7-8----7-8-----| 
|-------------------------------------| 
|-5-5-5--5-5-5--5-5-5-----------------| 
|-3-3-3--3-3-3--3-3-3-----------------| 
|-------------------------------------| 


PRE-CHORUS: 

		       PM---| 
|------------------------------------------------------------------| 
|------------------------------------------------------------------| 
|------------------------------------------------------------------| 
|------------------------------------------------------0*--0*--0*--| 
|-2-0-2--8--X--7---5---0-0-0-----2-0-2--7-8--7---5-----5*--5*--5*--| 
|-2-0-2--8--X--7---5---0-0-0-----2-0-2--7-8--7---5-----------------| 

		       PM---| 
|------------------------------------------------------------------| 
|------------------------------------------------------------------| 
|------------------------------------------------------------------| 
|-----------------------------5--5--5-5-5-7--7-7-7--7-7-7-4-4-4-4--| 
|-2-0-2--8--X--7---5---0-0-0--3--3--3-3-3-5--5-5-5--5-5-5-2-2-2-2--| 
|-2-0-2--8--X--7---5---0-0-0---------------------------------------| 


|-----------------------| 
|-----------------------| 
|-------Pick Slide------| 
|-4-4--/////////////----| 
|-2-2--/////////////----| 
|-----------------------| 


CHORUS: 


     PM--------|    PM--------|    PM--------|    PM-----------------|    PM 
|--------------------------------------------------------------------| 
|--------------------------------------------------------------------| 
|--------------------------------------------------------------------| 
|----------------5--5-5-5-5-5-5----------------7--7-7-7-7-7-7-9--9---| 
|-2--2-2-2-2-2-2-3--3-3-3-3-3-3-5--5-5-5-5-5-5-5--5-5-5-5-5-5-7--7---| 
|-2--2-2-2-2-2-2----------------5--5-5-5-5-5-5-----------------------| 

  PM------|    PM--------|    PM--------|    PM---------------| 
|-------------------------------------------------------------| 
|-------------------------------------------------------------| 
|-------------------------------------------------------------| 
|-9-9-9-9-9-5--5-5-5-5-5-5-2--2-2-2-2-2-2-4--4-4-4-4-4-4------| 
|-7-7-7-7-7-3--3-3-3-3-3-3-0--0-0-0-0-0-0-2--2-2-2-2-2-2------| 
|-------------------------------------------------------------| 

     PM--------|    PM--------|    PM--------|    PM-----------------|    PM 
|--------------------------------------------------------------------| 
|--------------------------------------------------------------------| 
|--------------------------------------------------------------------| 
|----------------5--5-5-5-5-5-5----------------7--7-7-7-7-7-7-9--9---| 
|-2--2-2-2-2-2-2-3--3-3-3-3-3-3-5--5-5-5-5-5-5-5--5-5-5-5-5-5-7--7---| 
|-2--2-2-2-2-2-2----------------5--5-5-5-5-5-5-----------------------| 

  PM------|    PM--------|    PM--------|    PM---------------| 
|-------------------------------------------------------------| 
|-------------------------------------------------------------| 
|-------------------------------------------------------------| 
|-9-9-9-9-9-5--5-5-5-5-5-5-2--2-2-2-2-2-2-4--4-4-4-4-4-4------| 
|-7-7-7-7-7-3--3-3-3-3-3-3-0--0-0-0-0-0-0-2--2-2-2-2-2-2------| 
|-------------------------------------------------------------| 

INTERLUDE: 


         PM---------------|         PM--------------------------| 
|---------------------------------------------------------------| 
|---------------------------------------------------------------| 
|---------------------------------------------------------------| 4x 
|---------------------------------------------------------------| 
|-3\-----2-2--2-2--2-2--2-2--8---8--2-2--2-2--2-2--2-2--0--0----| 
|-3\-----2-2--2-2--2-2--2-2--8---8--2-2--2-2--2-2--2-2--0--0----| 


|-------------------------------------------------------------------| 
|-------------------------------------------------------------------| 
|-------------------------------------------------------------------| 
|-------------------------------5--5-5-5-5-5-5-5-5-5-5-5-5-5-5------| 
|-5-5-5-5-5-5-5-5-5-5-5-5-5-5-5-3--3-3-3-3-3-3-3-3-3-3-3-3-3-3-2--2-| 
|-5-5-5-5-5-5-5-5-5-5-5-5-5-5-5--------------------------------2--2-| 


|---------------------------------------------------------------| 
|---------------------------------------------------------------| 
|---------------------------------------------------------------| 
|---------------------------------------------------------------| 
|-2-2-2-2-2-2-2-2-2-2-2-2-2-2--0-0-0-0-0-0-0-0-0-0-0-0-0-0-0----| 
|-2-2-2-2-2-2-2-2-2-2-2-2-2-2--0-0-0-0-0-0-0-0-0-0-0-0-0-0-0----| 

FINAL PRE-CHORUS: 

		       PM---| 
|------------------------------------------------------------------| 
|------------------------------------------------------------------| 
|------------------------------------------------------------------| 
|-----------------------------5--5--5-5-5-7--7-7-7--7-7-7-4-4-4-4--| 
|-2-0-2--8--X--7---5---0-0-0--3--3--3-3-3-5--5-5-5--5-5-5-2-2-2-2--| 
|-2-0-2--8--X--7---5---0-0-0---------------------------------------| 


|-----------------------| 
|-----------------------| 
|-------Pick Slide------| 
|-4-4--/////////////----| 
|-2-2--/////////////----| 
|-----------------------| 


FINAL CHORUS: 

The last chorus has it's first 2-3 seconds with no guitars. 

                    PM--------|    PM--------------------------------|    PM 
|--------------------------------------------------------------------| 
|--------------------------------------------------------------------| 
|--------------------------------------------------------------------| 
|-SILENCE--------------------------------------7--7-7-7-7-7-7-9--9---| 
|-Only Vocals Here-------------/5--5-5-5-5-5-5-5--5-5-5-5-5-5-7--7---| 
|------------------------------/5--5-5-5-5-5-5-----------------------| 


  PM------|    PM--------|    PM--------|    PM---------------| 
|-------------------------------------------------------------| 
|-------------------------------------------------------------| 
|-------------------------------------------------------------| 
|-9-9-9-9-9-5--5-5-5-5-5-5-2--2-2-2-2-2-2-4--4-4-4-4-4-4------| 
|-7-7-7-7-7-3--3-3-3-3-3-3-0--0-0-0-0-0-0-2--2-2-2-2-2-2------| 
|-------------------------------------------------------------| 


     PM--------|    PM--------|    PM--------|    PM-----------------|    PM 
|--------------------------------------------------------------------| 
|--------------------------------------------------------------------| 
|--------------------------------------------------------------------| 
|----------------5--5-5-5-5-5-5----------------7--7-7-7-7-7-7-9--9---| 
|-2--2-2-2-2-2-2-3--3-3-3-3-3-3-5--5-5-5-5-5-5-5--5-5-5-5-5-5-7--7---| 
|-2--2-2-2-2-2-2----------------5--5-5-5-5-5-5-----------------------| 

  PM------|    PM--------|    PM--------|    PM---------------| 
|-------------------------------------------------------------| 
|-------------------------------------------------------------| 
|-------------------------------------------------------------| 
|-9-9-9-9-9-5--5-5-5-5-5-5-2--2-2-2-2-2-2-4--4-4-4-4-4-4------| 
|-7-7-7-7-7-3--3-3-3-3-3-3-0--0-0-0-0-0-0-2--2-2-2-2-2-2------| 
|-------------------------------------------------------------| 

FINAL MELODY: 

|--------------------------------------------------------------------------| 
|--------------------------------------------------------------------------| 
|-9-9-9-9-9-9-9-9-9-9-9-12--12-11-11-9-9-9-9-9-9-9-9-9-9-9-14--14-12-12----| 
|--------------------------------------------------------------------------| 
|-7-7-7-7-7-7-7-7-7-7-7-10--10--9--9-7-7-7-7-7-7-7-7-7-7-7-12--12-10-10----| 
|--------------------------------------------------------------------------| 

|--------------------------------------------------------------------------| 
|--------------------------------------------------------------------------| 
|-9-9-9-9-9-9-9-9-9-9-9-12--12-11-11-9-9-9-9-9-9-9-9-9-9-9-14--14-12-12----| 
|--------------------------------------------------------------------------| 
|-7-7-7-7-7-7-7-7-7-7-7-10--10--9--9-7-7-7-7-7-7-7-7-7-7-7-12--12-10-10----| 
|--------------------------------------------------------------------------| 

|-----------------| 
|-----------------| 
|-----------------| 
|-----------------| 
|-2-2---2---2\----| 
|-2-2---2---2-----| 
		  

See also:

tabs The Gazette - Chizuru tabs Yamazaki Masayoshi - One More Time, One More Chance tabs YUI - Find Me tabs HB - Be Aware tabs HB - The Jeus Metal Explosion tabs InuYasha - Every Heart
e-chords

Other versions:

tabs Mami Kawada - Joint
auto scroll beats size up size down change color hide chords drawings
tab show chords e-chords YouTube Clip e-chords hide all tabs e-chords go to top tab

share with facebook