Makthaverskan

It's You And It's I

Makthaverskan

tabs

by  LUCICAMARGO

save to print version add songbook text version e-mail correct tuner
chordsukulelecavacokeyboardtabbassdrumsharmonicaflute Guitar Pro
close

there isn't a video lesson for this song

chords

It's You And It's I

	  		

Intro:                         x3 
e|--------------------|--------------------| 
B|--------------------|--------------------| 
G|--------3-5-5555323-|--------3-5-5555323-| 
D|-333333-------------|-3-3-33-------------| 
A|--------------------|--------------------| 
E|--------------------|--------------------| 

Verse: 
          x3 
e|--------------------|----------------------| 
B|--------------------|----------------------| 
G|--------3-5-5555323-|--------3-5--55/-10-9-| 
D|-3-3-33-------------|-3-3-33---------------| 
A|--------------------|----------------------| 
E|--------------------|----------------------| 

Chorus: 
e|------------------------------|------------------------------| 
B|------------------------------|------------------------------| 
G|-7-77-9-10-9-5--5-5-5-5-5-5-5-|-5--55-10-9-7--7-7-7-7-9-10-9-| 
D|------------------------------|------------------------------| 
A|------------------------------|------------------------------| 
E|------------------------------|------------------------------| 

e|------------------------------|----------------------------| 
B|------------------------------|----------------------------| 
G|-7-77-9-10-9-5--5-5-5-5-5-5-7-|-5--55-10-9-7--7-7-7-7-9-10-| 
D|------------------------------|----------------------------| 
A|------------------------------|----------------------------| 
E|------------------------------|----------------------------| 

Repeat VERSE 
Repeat Chorus 

Bridge: 
e|------------------|-----------------| 
B|------------------|-----------------| 
G|------------------|--------5-55-323-| 
D|-7-7-77-07-77-5-5-|-7-7-77----------| 
A|------------------|-----------------| 
E|------------------|-----------------| 

Repeat VERSE 
Repeat Chorus 
Repeat VERSE 
Repeat Chorus 
Repeat BRIDGE 

OUTRO: 
e|------------------------|----------------| 
B|------------------------|----------------| 
G|--------3-5-555-3-2-3-2-|-23-333-3-2-3-2-| 
D|-3-3333-----------------|----------------| 
A|------------------------|----------------| 
E|------------------------|----------------| x2 

e|-------------------------|----------------| 
B|-------------------------|----------------| 
G|--------3-5-5555-3-2-3-2-|-23-333-3-2-3-2-| 
D|-3-3333------------------|----------------| 
A|-------------------------|----------------| 
E|-------------------------|----------------| 

e|-------------------------|----------------|--------| 
B|-------------------------|----------------|--------| 
G|--------3-5-555-3-2-3--2-|-23-333-3-2-3-2-|--------| 
D|-3-3333------------------|----------------|-3------| 
A|-------------------------|----------------|--------| 
E|-------------------------|----------------|--------| 

 
		  

See also:

tabs Deep Purple - Strange kind of woman tabs Deep Purple - Smoke On The Water tabs Deep Purple - Time To Kill tabs Albert Hammond Jr - Gfc tabs Deep Purple - Soldier Of Fortune tabs Ira! - Nucleo De Base
e-chords

Other versions:

tabs Makthaverskan - It's You And It's I
auto scroll beats size up size down change color hide chords drawings
tab show chords e-chords YouTube Clip e-chords hide all tabs e-chords go to top tab

share