Maiara e Maraisa

home > Maiara e Maraisa

Medo Bobo Tab

Maiara e Maraisa

Difficulty: nolevelnolevel

by NandoRell

tuner correct add songbook print version text version save to e-mail
chordsukulelecavacokeyboardtabbassdrumsharmonicsflute Guitar Pro
chords

Medo Bobo

  		1)versão  
e|------------------------------------------  
b|--10-9-7-5-2-5-2-5-7-2-0------------------  
g|------------------------------------------  
d|------------------------------------------  
a|------------------------------------------  
E|------------------------------------------  

e|------------------------------------------  
b|--10-9-7-5-2-5-2--0-2---------------------  
g|------------------------------------------  
d|------------------------------------------  
a|------------------------------------------  
E|------------------------------------------  


2)versão  
e|--5-4-2-----------------------------------  
b|--------5-2-5-2----5-7-2----2-2-----------  
g|-----------------------------4------------  
d|------------------------------------------  
a|------------------------------------------  
E|------------------------------------------  

e|--5-4-2-----------------------------------  
b|--------5-2-5-2-----2---------------------  
g|----------------4-------------------------  
d|------------------------------------------  
a|------------------------------------------  
E|------------------------------------------  




	  

Search Paypal
auto scroll beats size up size down change color hide chords drawings
tab show chords e-chords YouTube Clip e-chords hide all tabs e-chords go to top tab