Mago De Oz

Pensando En Ti (solo)

Mago De Oz

tabs Beginner beginner

by  MUSO2010

save to print version add songbook text version e-mail correct tuner
chordsukulelecavacokeyboardtabbassdrumsharmonicaflute Guitar Pro
close

there isn't a video lesson for this song

chords

Pensando En Ti (solo)

	  		Solo de Guitarra: 

E.--12~------------------------------------------------------------------------- 
B.-----15-13-12-13-15--13-12----12-13~-12------12-13-12------------------------- 
G.---------------------------14-----------14~-----------14-12-14-12------------- 
D.------------------------------------------------------------------14-12-14~--- 
A.------------------------------------------------------------------------------ 
E.------------------------------------------------------------------------------ 

  ---------------------------------------------------------------12-13/15-15---- 
  --15-13-12-13-15--13-12----12-13~-12------12-13-12----12-13-15---------------- 
  ------------------------14-----------14~-----------14------------------------- 
  ------------------------------------------------------------------------------ 
  ------------------------------------------------------------------------------ 
  ------------------------------------------------------------------------------ 
  ------------------------------------------------------------------------------ 

  --15-17-15-13-15-13-12-13-12----12--------------------------------- 
  -----------------------------15----15-13-15-13-12------------------ 
  -------------------------------------------------14--14------------ 
  ------------------------------------------------------------------- 
  ------------------------------------------------------------------- 
  ------------------------------------------------------------------- 

  -----------------------12-------12-------12-13/15-15--------------- 
  -----12-13----12-13-15----13-15----13-15--------------------------- 
  --14-------14------------------------------------------------------ 
  ------------------------------------------------------------------- 
  ------------------------------------------------------------------- 
  ------------------------------------------------------------------- 

  -15-17-15-13-15-13-12-13-12----12---------------------------------- 
  ----------------------------15----15-13-15-13-12-13-12------------- 
  -------------------------------------------------------14--14------ 
		  

See also:

tabs Mago De Oz - Ancha es castilla tabs La Oreja de Van Gogh - V.s.o. tabs Ana Gabriel - Fgbh Gj tabs Avalanch - Torquemada tabs Avalanch - La Llama Eterna tabs Mago De Oz - Pensando En Ti
e-chords

Other versions:

tabs Mago De Oz - Pensando En Ti tabs Mägo De Oz - Pensando En Ti tabs Mago De Oz - Pensando En Ti (solo)
auto scroll beats size up size down change color hide chords drawings
tab show chords e-chords YouTube Clip e-chords hide all tabs e-chords go to top tab

share