Mago De Oz

Hazme Un Sitio Entre Tu Piel

Mago De Oz

tabs

by  IRONMEJIAB

save to print version add songbook text version e-mail correct tuner
chordsukulelecavacokeyboardtabbassdrumsharmonicaflute Guitar Pro
close

there isn't a video lesson for this song

chords

Hazme Un Sitio Entre Tu Piel

	  		Hazme Un Sitio Entre Tu Piel 
Mago de Oz 
Gaia II 
Si me ves, besame, 
hazme un sitio entre tu piel...! 
 
**..INTRO...** 
 
*Guitarra 1: 
   A#                          G 
e|--------------------------------| 
B|--------------------------------| 
G|--------------------------------| 
D|-8x-------------------------5x--| 
A|-8x-------------------------5x--| 
E|-6x-------------------------3x--| 
 
**Guitarra 2: 
(punteo de fondo mientras toca la guitarra 1) 
e|-------------------------------| 
B|-------------------------------| 
G|----12-14-14h15-14-12----12----| 
D|--12------------------15----12-| 
A|-------------------------------| 
E|-------------------------------| 
 
e|-------------------------------| 
B|-------------------------------| 
G|----12-14-14h15-14-12----12p---| 
D|--12------------------15-------| 
A|-------------------------------| 
E|-------------------------------| 
 
  -*-*-Violin-*-*- 
e|-------------------------------------| 
B|-------------------------------------| 
G|---12/19-17--19-17-------------------| 
D|-------------------20-19-17-15-12----| 
A|-------------------------------------| 
E|-------------------------------------| 
 
**Guitarra 2: 
e|-------------------------------| 
B|-------------------------------| 
G|----12-14-14h15-14-12----12----| 
D|--12------------------15----12-| 
A|-------------------------------| 
E|-------------------------------| 
 
e|-------------------------------| 
B|-------------------------------| 
G|----12-14-14h15-14-12----12p---| 
D|--12------------------15-------| 
A|-------------------------------| 
E|-------------------------------| 
 
-*-*Violin*-*-: 
 
e|-------------------------------------- 
B|-------------------------------------- 
G|----12/19-17--19-17----19-17---------- 
D|--------------------20-------20-19-20- 
A|-------------------------------------- 
E|-------------------------------------- 
 
e|-------------------------------------- 
B|-------------------------------------- 
G|---19-17----------19-17--------------- 
D|--------20-19-20-------20-19-20-19-15- 
A|-------------------------------------- 
E|-------------------------------------- 
 
e|-------------------------------------------------------| 
B|-------------------------------------------------------| 
G|----19-17-----------19-17----------19-17---------------| 
D|-20-------20-19-20--------20-19-20-------20-19-20-19-15| 
A|-------------------------------------------------------| 
E|-------------------------------------------------------| 
 
*-El violin va a compañado con esto: 
 
A|--------------------------| 
E|--1x-1x-1x-1x-3x-3x-3x-3x-| 
 
Al terminar la parte del violin acompañado por la guitarra 
sigue esto que es el mismo punteo que lleva de fondo desde 
que empieza la musica de la cancion... 
 
PUNTEO: 
e|------------------------------| 
B|------------------------------| 
G|---12-14-14h15-14-12----12p---| 
D|-12------------------15-------| 
A|------------------------------| 
E|------------------------------| 
 
Verso: 
 
Voy buscando alguna voz en mí 
que me ayude bien a discernir, 
                            (G|--0/----| arrastra la pua por la cuerda) 
pues mi mente es un vestido que me queda mal. 
 
 
¿Cual ha sido, dónde está el error? 
¿Quién me ha condenado al terror 
de una mente en blanco y negro? 
 
**Entra guitarra con distorcion (solo marcados)** 
 
        G       F 
¿Donde está mi lugar? 
                 D# 
No soy como los demás, 
        F 
yo sé pensar!! 
D#                  A#  F 
Estoy sólo y tengo miedo.... 
 
   A#                          G 
e|--------------------------------| 
B|--------------------------------| 
G|--------------------------------| 
D|-8x-------------------------5x--| 
A|-8x-------------------------5x--| 
E|-6x-------------------------3x--| 
 
CORO: 
 
   A#        F 
Si me ves, besame, 
           D#            D 
hazme un sitio entre tu piel, 
           A#         D# 
que los rasgos de mi cara 
         C            F 
no te impidan ver mi ser. 
 
-**-Palm muted: 
 
   A#            F 
Sentirás que mi amor 
       D#             D 
tiene sed de que una voz 
       A#         D# 
me susurre una caricia 
       C           F 
o me regale una ilusiooooón. 
 
-*-*Violin*-*-: 
e|------------------------------------------ 
B|---------------------21------------------- 
G|----19-21h22-19-21-22---22-21-19-19-17-15- 
D|------------------------------------------ 
A|------------------------------------------ 
E|------------------------------------------ 
 
e|------------------------------------------| 
B|-----15-17/18-17-15----15-17/19--17-15-17-| 
G|--17----------------17--------------------| 
D|------------------------------------------| 
A|------------------------------------------| 
E|------------------------------------------| 
 
Guitarra: 
    G  G   G  G  G 
D|--5x-5x--5x-5x-5x--| 
A|--5x-5x--5x-5x-5x--| 
E|--3x-3x--3x-3x-3x--| 
 
 
Dame mimos, dame tu calor, 
te los devolveré en forma de flor, 
recibirás por cien, multiplicado lo que me des. 
 
Si me apartas, no me integraré. 
Si me abandonas, yo me perderé. 
El rechazo es mi condena... 
 
-*Guitarra (solo marcados): 
 G                   F 
¿Dónde está, mi libertad? 
                       D# 
buscaré un futuro para mí. 
              F   D# 
Me va a costar!! 
 
pero sin amor no puedo... 
 
   A#                          G 
e|--------------------------------| 
B|--------------------------------| 
G|--------------------------------| 
D|-8x-------------------------5x--| 
A|-8x-------------------------5x--| 
E|-6x-------------------------3x--| 
 
 
CORO:(igual) 
 
Si me ves, bésame, 
hazme un sitio entre tu piel, 
que los rasgos de mi cara 
no te impidan ver mi ser. 
 
Sentirás que mi amor 
tiene sed de que una voz 
me susurre una caricia 
o me regale una ilusioooón. 
 
Guitarra: 
    G  G   G  G  G 
D|--5x-5x--5x-5x-5x--| 
A|--5x-5x--5x-5x-5x--| 
E|--3x-3x--3x-3x-3x--| 
 
*-*-Violin:-*-* 
e|-------------------------------------------------------| 
B|-------------------------------------------------------| 
G|--15-18-17-15----15-18-17-15----15-18-17-15----15------| 
D|--------------18-------------18-------------18----18-15| 
A|-------------------------------------------------------| 
E|-------------------------------------------------------| 
 
*-El violin y otros intrumentos van a compañado con esto 
(que es lo del intro): 
 
A|--------------------------| 
E|--1x-1x-1x-1x-3x-3x-3x-3x-| 
 
 
!!!SOLO!!!: 
e|------------------------------ 
B|------------------------------ 
G|---12-14-14h15-14-12----12p--- 
D|-12------------------15------- 
A|------------------------------ 
E|------------------------------ 
 
e|--------------------------------------------------- 
B|--------------------------------------------------- 
G|------------------10-12-10-12p--10-12-10-12/14ph12- 
D|--12p-10p---10-12---------------------------------- 
A|--------------------------------------------------- 
E|--------------------------------------------------- 
 
(Aqui hay algunas variaciones) 
e|----------------12h13h15p(x3)---------------- 
B|--15h14h12p-(x3)-------------15h14h12p-(x3)-- 
G|--------------------------------------------- 
D|--------------------------------------------- 
A|--------------------------------------------- 
E|--------------------------------------------- 
 
e|------------------------------------------------------ 
B|--------14------15------14------12-------------------- 
G|------------------------------------------15-14---12-- 
D|--12x12x--12x12x--12x12x--12x12x---12x12x-------15---- 
A|------------------------------------------------------ 
E|------------------------------------------------------(3 veces) 
 
e|---------------------------------------------| 
B|----------13---------------------13----------| 
G|-12-14-15----15-14-10---12-14-15---15-14-12--| 
D|---------------------------------------------| 
A|---------------------------------------------| 
E|---------------------------------------------| 
 
Y al final llegaré 
donde me lleven los pies, 
y si quieres conocerme, 
no me observes, mírame. 
 
*-Guitarra(solo marcados): 
        A#        F 
¿Dónde estás, Libertad? 
     D#           D 
Mi celda es la soledad, 
       A#           D# 
el silencio que no calla 
        A#         F 
es el vacío de tu voz. 
 
CORO: (igual) 
 
Si me ves, bésame, 
hazme un sitio entre tu piel, 
que los rasgos de mi cara 
no te impidan ver mi ser. 
 
Sentirás que mi amor 
tiene sed de que una voz 
me susurre una caricia 
o me regale una ilusión... 
 
 
 

		  

Full key step upFull key step up
Half key step upHalf key step up
Half key step downHalf key step down
Full key step downFull key step down
hide glossary

See also:

tabs Mago De Oz - Ancha es castilla tabs La Oreja de Van Gogh - V.s.o. tabs Ana Gabriel - Fgbh Gj tabs Avalanch - Torquemada tabs Avalanch - La Llama Eterna tabs Mago De Oz - Pensando En Ti
e-chords

Other versions:

tabs Mago De Oz - Hazme Un Sitio Entre Tu Piel
auto scroll beats size up size down change color hide chords drawings
tab show chords e-chords YouTube Clip e-chords hide all tabs e-chords go to top tab

share