Mago De Oz

El Atrapasueños

Mago De Oz

tabs Expert expert

by  IRONMEJIAB

save to print version add songbook text version e-mail correct tuner
chordsukulelecavacokeyboardtabbassdrumsharmonicaflute Guitar Pro
close

there isn't a video lesson for this song

chords

El Atrapasueños

	  		El Atrapasueños 
Mago de Oz 
 
introduccion 
------------------------------------------------- 
------------------------------------------------- 
------------------------------------------------- 
-------------------------------------10---------- 
-7---7-7-7-7-5---5-5-5-5-7---7-7-7-7-8-----10---- 
-5---5-5-5-5-3---3-3-3-3-5---5-5-5-5-------8----- 
     . . . .     . . . .     . . . .            P.M. 
 
antes del verso 
------------------------------------------ 
------------------------------------------ 
------------------------------------------ 
------------------------------------------ 
-7------------------------------7--------- 
-5xxxxxxxxxxxxxxxxx-3-5-7-8-7\5-5xxxxx-/x- <=={raspar cuerda} 
 
verso 
------------------------------------------------- 
------------------------------------------------- 
------------------------------------------------- 
------------------------------------------------- 
-------7-----------5-----------5-----------7----- 
-5---5-5---5-3---3-3-----3---3-3---3-5---5-5----- 
 .   .     . .   .       .   .     . .   .      P.M. 
dichoso es el que ve que el cielo y horizonte 
condenados estan a tenerse que entender 
juicioso es el que cree que no existe partida 
en la que no haya que arriesgar para vencer 
 
coro 
------------------------------------------------- 
------------------------------------------------- 
-5---------------5-----------2------------------- 
-5---5---5---7---5---5---5-2-2------------------- 
-3---5---5---7---3---5---5-2-0------------------- 
-----3---3---5-------3---3-0--------------------- 
la felicidad no consiste en todo tener 
sino en saber sacar lo bueno que hoy te da 
y al ver salir el sol un aguila un halcon 
que una legion de 
 
-introduccion 
 
-verso 2 
yo te mostrare que todo en esta vida 
lo puedes tener si en ti logras creer 
y te enseñare a vencer a tu enemigo 
que no son los demas, *eres tu, eres tu {G|-4-5-----5-- x2} 
 
-coro 2 
hay que fracasar y a veces fondo tocar 
para ver la luz y esta vida apreciar 
la felicidad no consiste en todo tener 
sino en saber sacar lo bueno que hoy te da 
 
-parte lenta: Am G G Am 
 
 cuando empieza a cantar 
------------------------------|------------------- 
------------------------------|------------------- 
------------------------------|------------------- 
------------------------------|---5-4------------- 
-7-7-7-7----------------------|-7-3-2-7-5-7-7----- 
-5-5-5-5----------------------|-5-----5-3-5-5----- 
 
verso especial 
---------------------------------------------------------- 
---------------------------------------------------------- 
-5---------------------------5---------------------------- 
-5-------5-------------------5-------5-------------------- 
-3-------5-------7-----5-----3-------5-------7---3---7---- 
---------3-------5xxxx-3xxxx---------3-------5xx-5xx-5xxx- 
(y algun dia se cumpliran) todos tus sueños se haran realidad 
(y mañana amanecera) el atrapasueños yo soy 
(y algun dia se cumpliran) atrapasueños de jaula y dolor 
(y mañana amanecera) el atrapasueños yo soy 
 
-introduccion 
 
-solo (segunda guitarra repite verso) 
------------------------------------------------------------------------- 
----------------------8-------------------------------------------------- 
-----5-7--7/9---7-9b-----7h9~-------------------------------------------- 
-5-7-----------------------------9-10-7---------7------------------------ 
----------------------------------------10-7-10---10-7-10---------------- 
----------------------------------------------------------10-8\3---0--/7- 
 
------------------------------------------------------------------------- 
----------------------------------10---10--10b12---r10-----/15~---13-12-- 
-5--7--<7/9>-<7>-----------7-9.------------------------------------------ 
-------------------10p7-10----------------------------------------------- 
------------------------------------------------------------------------- 
------------------------------------------------------------------------- 
 
----------------10/-/17-15-17-15-17-15-17-------------------------------- 
-13-12-10-12-13---------------------------------------------------------- 
------------------------------------------------------------------------- 
------------------------------------------------------------------------- 
------------------------------------------------------------------------- 
------------------------------------------------------------------------- 
 
-interludio de flauta: Am Dm G Am x4 
 
------------------------------------------------------------------------- 
------------------------------------------------------------------------- 
------------------------------------------------------------------------- 
-------------7-----7----------------------------------------------------- 
-7-----7-----5-----5-----5-----5-----7-----7----------------------------- 
-5-----5-----------------3-----3-----5-----5----------------------------- 
 
-verso especial 
 
-introduccion 
 
fin 
 
------------------------------------------------------------------------- 
------------------------------------------------------------------------- 
------------------------------------------------------------------------- 
------------------------10----------------------------------------------- 
-7-------5-------7-------8--10---7\x------------------------------------- 
-5-------3-------5-----------8---5\x------------------------------------- 
 
 
 
{ _ { otros instrumentos, transcritos para guitarra } _ } 
 
 violin principal 
-------------10-12-----------7--8-10-------------10-12-13-12-10---------- 
-10----10-13--------8-----8----------10----10-13----------------12-13-12- 
------------------------------------------------------------------------- 
------------------------------------------------------------------------- 
------------------------------------------------------------------------- 
------------------------------------------------------------------------- 
 
-------------10-12-----------7--8-10-------------10-12/17-15-13-12------- 
-10----10-13--------8-----8----------10----10-13-------------------15-13- 
------------------------------------------------------------------------- 
------------------------------------------------------------------------- 
------------------------------------------------------------------------- 
------------------------------------------------------------------------- 
 
 violin en primera parte lenta {1:24} 
------------5------------------------------5----------------------------- 
--5---6-8-----5-----5------------5---6-8-----5-------5~------------------ 
------------------7-----7-5----------------------7----------------------- 
------------------------------------------------------------------------- 
------------------------------------------------------------------------- 
------------------------------------------------------------------------- 
 
------------5-7---8---7tr---5----8--/12---10----------------------------- 
--5---6-8--------------------------------------13---12-------13-13------- 
------------------------------------------------------------------------- 
------------------------------------------------------------------------- 
------------------------------------------------------------------------- 
------------------------------------------------------------------------- 
 
 flauta {2:41} 
----------12----12------------10----10-----10--10-10-10-12-10------------ 
-10-12-13------------10-12-13----------------------------------13--12-10- 
------------------------------------------------------------------------- 
------------------------------------------------------------------------- 
------------------------------------------------------------------------- 
------------------------------------------------------------------------- 
 
----------12----12------------10----10-----10--10-10-10------------------ 
-10-12-13------------10-12-13---------------------------13-12-10---10---- 
------------------------------------------------------------------------- 
------------------------------------------------------------------------- 
------------------------------------------------------------------------- 
------------------------------------------------------------------------- 
 
 violin {3:00} 
----------12--12------------10--10------------10--10--12--10------------- 
-10-12-13---------10-12-13----------10-12-13-----------------13-12-13---- 
------------------------------------------------------------------------- 
------------------------------------------------------------------------- 
------------------------------------------------------------------------- 
------------------------------------------------------------------------- 
 
----------12--12------------10--10------------10-12-10----------15-13-12- 
-10-12-13---------10-12-13----------10-12-13-----------13-12-13---------- 
------------------------------------------------------------------------- 
------------------------------------------------------------------------- 
------------------------------------------------------------------------- 
------------------------------------------------------------------------- 
 
------------------ 
-15-13-12-........ 
------------------ 
------------------ 
------------------ 
------------------ 
 

		  

Full key step upFull key step up
Half key step upHalf key step up
Half key step downHalf key step down
Full key step downFull key step down
hide glossary

See also:

tabs Mago De Oz - Ancha es castilla tabs La Oreja de Van Gogh - V.s.o. tabs Ana Gabriel - Fgbh Gj tabs Avalanch - Torquemada tabs Avalanch - La Llama Eterna tabs Mago De Oz - Pensando En Ti
e-chords

Other versions:

tabs Mago De Oz - El Atrapasueños
auto scroll beats size up size down change color hide chords drawings
tab show chords e-chords YouTube Clip e-chords hide all tabs e-chords go to top tab

share