Magna Carta Cartel

Valiant Visions Dawn

Magna Carta Cartel

tabs

by  BRUNBLAZKOWSKI

save to print version add songbook text version e-mail correct tuner
chordsukulelecavacokeyboardtabbassdrumsharmonicaflute Guitar Pro
close

there isn't a video lesson for this song

chords

Valiant Visions Dawn

	  		e|---------------------------------------------------------------------------| 
B|---------------------------------------------------------------------------| 
G|-------------11-------------11-12\7-7/9-------------11---------------------| 
D|---------------------------------------------------------------------------| 
A|--12-12h13h14---12-12h13h14-------------12-12h13h14------------------------| 
E|---------------------------------------------------------------------------| 
(Intro) 
e|---------------------------------------------------------------------------| 
B|---------------------------------------------------------------------------| 
G|--------------11-12\7--7/9--------------11-------------11-12\7-7/9---------| 
D|---------------------------------------------------------------------------| 
A|--12-12h13h14---------------12-12h13h14----12-12h13h14---------------------| 
E|---------------------------------------------------------------------------| 

e|---------------------------------------------------------------------------| 
B|---------------------------------------------------------------------------| 
G|--------------11-------------11-12\7---7/9---6-----------------------------| 
D|-------------------------------------7-------------------------------------| 
A|--12-12h13h14----12-12h13h14-----------------------------------------------| 
E|---------------------------------------------------------------------------| 

e|---------0----------------0--------------------0---------------------------| 
B|-------0----------------0--------------------0------------0------0---------| 
G|----11----------------9-------------------12------------7------6-----------| 
D|--9-----------------7------------------14-------------5------7-------------| 
A|---------------------------------------------------------------------------| 
E|---------------------------------------------------------------------------| 
As always I... 
e|---------0----------------0-------------------0----------------------------| 
B|-------0----------------0-------------------0------------0------0----------| 
G|----11----------------9------------------12------------7------6------------| 
D|--9-----------------7-----------------14-------------5------7--------------| 
A|---------------------------------------------------------------------------| 
E|---------------------------------------------------------------------------| 
My vision holds... 
e|---------------------------------------------------------------------------| 
B|--12\0---------------------------------------------------------------------| 
G|-----------12--12\11--11--11\9--9--9\7--7--7\6--6--6/7--7--7\6-------------| 
D|------------x---x\x----x---x\x--x--x\x--x--x\x--x--x/x--x--x\x-------------| 
A|-----------10--10\9----9---9\7--7--7\5--5--5\4--4--4/5--5--5\4-------------| 
E|---------------------------------------------------------------------------| 
           I'm facing up... 
e|---------------------------------------------------------------------------| 
B|---------------------------------------------------------------------------| 
G|-----------12--12\11--11--11\9--9--9\7--7--7\6--6--6/7--7--7\6-------------| 
D|------------x---x\x----x---x\x--x--x\x--x--x\x--x--x/x--x--x\x-------------| 
A|-----------10--10\9----9---9\7--7--7\5--5--5\4--4--4/5--5--5\4-------------| 
E|---------------------------------------------------------------------------| 
           Somewhere in the... 
e|---------------------------------------------------------------------------| 
B|---------------------------------------------------------------------------| 
G|--------------11--------------11\12--7/9--------------11-------------------| 
D|---------------------------------------------------------------------------| 
A|--12-12h13h14-----12-12h13h14-------------12-12h13h14-----12-12h13h14------| 
E|---------------------------------------------------------------------------| 

e|------------------------------0----------------0-----------------0---------| 
B|----------------------------0----------------0-----------------0-----------| 
G|--11\12--7---7/9--6------11----------------9-----------------12------------| 
D|-----------7-----------9-----------------7-----------------14--------------| 
A|---------------------------------------------------------------------------| 
E|---------------------------------------------------------------------------| 
                       In silence I... 
e|----------------------------------0----------------0------------------0----| 
B|------0------0------------------0----------------0------------------0------| 
G|----7------6-----------------11----------------9-----------------12--------| 
D|--5------7-----------------9-----------------7-----------------14----------| 
A|---------------------------------------------------------------------------| 
E|---------------------------------------------------------------------------| 
                       Embracing the truth... 
e|---------------------------------------------------------------------------| 
B|------0------0---------12\0------------------------------------------------| 
G|----7------6--------------------12--12\11--11--11\9--9--9\7--7--7\6--------| 
D|--5------7-----------------------x---x\x----x---x\x--x--x\x--x--x\x--------| 
A|--------------------------------10--10\9----9---9\7--7--7\5--5--5\4--------| 
E|---------------------------------------------------------------------------| 
                                When thinking of... 
e|---------------------------------------------------------------------------| 
B|---------------------------------------------------------------------------| 
G|--6--6/7--7--7\6---------------------12--12\11--11--11\9--9--9\7--7--7\6---| 
D|--x--x/x--x--x\x----------------------x---x\x----x---x\x--x--x\x--x--x\x---| 
A|--4--4/5--5--5\4---------------------10--10\9----9---9\7--7--7\5--5--5\4---| 
E|---------------------------------------------------------------------------| 
                                That warm the... 
e|-------------------------------10---9----------10----9-10------------------| 
B|----------------------------12--------12----12------------12---------------| 
G|--6--6/7--7--7\6--6------11------11------11-------11---------11------------| 
D|--x--x/x--x--x\x--x--------------------------------------------------------| 
A|--4--4/5--5--5\4--4--------------------------------------------------------| 
E|---------------------------------------------------------------------------| 

e|--------10---9----------10----9-10---------------10---9----------10----9-10| 
B|-----12--------12----12------------12---------12--------12----12-----------| 
G|--11------11------11-------11---------11---11-------11-----11-------11-----| 
D|---------------------------------------------------------------------------| 
A|---------------------------------------------------------------------------| 
E|---------------------------------------------------------------------------| 

e|---------------10---9----------10--9---------------------------------------| 
B|-12---------12--------12----12-----12--------------------------------------| 
G|----11---11------11------11--------11--------------------------------------| 
D|---------------------------------------------------------------------------| 
A|---------------------------------------------------------------------------| 
E|---------------------------------------------------------------------------| 

e|--------10---9----------10----9-10---------------10----9----------10---9-10| 
B|-----12--------12----12------------12---------12---------12----12----------| 
G|--11------11------11-------11---------11---11-------11------11-------11----| 
D|---------------------------------------------------------------------------| 
A|---------------------------------------------------------------------------| 
E|---------------------------------------------------------------------------| 

e|---------------10----9----------10----9-10--------------7--7------7--------| 
B|-12---------12---------12----12------------12--------10------10-----10-----| 
G|----11---11-------11------11-------11---------11---9------------9------9---| 
D|---------------------------------------------------------------------------| 
A|---------------------------------------------------------------------------| 
E|---------------------------------------------------------------------------| 

e|--7------7--------------10----9----------10----9-10------------------------| 
B|----10-----10--------12---------12----12------------12---------------------| 
G|-------9------9---11-------11------11-------11---------11------------------| 
D|---------------------------------------------------------------------------| 
A|---------------------------------------------------------------------------| 
E|---------------------------------------------------------------------------| 

e|--------12--12--------12--------12--------12-------------------------------| 
B|-----12--------12--------12--------12--------12----------------------------| 
G|--12--------------12--------12--------12--------12-------------------------| 
D|---------------------------------------------------------------------------| 
A|---------------------------------------------------------------------------| 
E|---------------------------------------------------------------------------| 

e|--------10----9----------10----9-10-------------7--7-------7---------------| 
B|-----12---------12----12------------12-------10------10------10------------| 
G|--11-------11------11-------11---------11--9------------9-------9----------| 
D|---------------------------------------------------------------------------| 
A|---------------------------------------------------------------------------| 
E|---------------------------------------------------------------------------| 

e|-7---------------0-0---------------0-0---------------0-0-------------------| 
B|---10----------0-----0-----------0-----0-----------0-----0-----------------| 
G|------9-----11---------11-----11---------11-----11---------11--------------| 
D|----------9---------------9-9---------------9-9---------------9------------| 
A|---------------------------------------------------------------------------| 
E|---------------------------------------------------------------------------| 

e|----------------------------------------0--0-------------0-0---------------| 
B|--------0-0-------0-------0----------------------------0-----0-------------| 
G|-----14-----14------14------14--------6-----6-------11---------11----------| 
D|--12-----------12------12------12---7----7----7---9---------------9--------| 
A|---------------------------------------------------------------------------| 
E|---------------------------------------------------------------------------| 

e|---------0-0---------------------------------------------------------------| 
B|-------0-----0------------0-------0---------0-------0----------------------| 
G|----11---------11-------7---7---7---7-----9---9---9---9--------------------| 
D|--9---------------9---5-------5---------7-------7--------------------------| 
A|---------------------------------------------------------------------------| 
E|---------------------------------------------------------------------------| 

e|---------0-0---------------0-0---------------------------------------------| 
B|-------0-----0-----------0-----0--------------0---------0------------------| 
G|----11---------11-----11---------11--------11---------6---6----------------| 
D|--9---------------9-9---------------9---12------12--7-------7--------------| 
A|---------------------------------------------------------------------------| 
E|---------------------------------------------------------------------------| 

e|---------0-----------------------------------0----------------0------------| 
B|-------0----------0------------0-----------0----------------0--------------| 
G|----11---------14---14-------9---9------11-----11---11---11----------------| 
D|--9---------12---------12--7-------7--9-----------9----9-------------------| 
A|---------------------------------------------------------------------------| 
E|---------------------------------------------------------------------------| 

e|-----------------------------0------0--------------------------------------| 
B|--------0------------------------------------------------------------------| 
G|-----14------14----14-----7-------7------7-----9-11---9-11----9-11---------| 
D|--12------12----12------9-------9------9-----9------9-------9--------------| 
A|---------------------------------------------------------------------------| 
E|---------------------------------------------------------------------------| 
  
e|---------------------------------------------------------------------------| 
B|--------------0------0-----------0------0------------0-------0-------------| 
G|----9-11----7------7------7----9------9------9----11------11------11-------| 
D|--9-------5------5------5----7------7------7----9-------9-------9----------| 
A|---------------------------------------------------------------------------| 
E|---------------------------------------------------------------------------| 

e|---------------------------------------------------------------------------| 
B|--------0--------0-------------0------0------------0-------0---------------| 
G|-----14-------14-------14----9------9------9----11------11------11---------| 
D|--12-------12-------12-----7------7------7----9-------9-------9------------| 
A|---------------------------------------------------------------------------| 
E|---------------------------------------------------------------------------| 

e|---------------------------------------------------------------------------| 
B|------0------0-----------0------0----------0-------------------------------| 
G|----7------7------7----6------6------6----11-------------------------------| 
D|--5------5------5----7------7------7-------9-------------------------------| 
A|---------------------------------------------------------------------------| 
E|---------------------------------------------------------------------------| 


************************************ 

| /  Slide up 
| \  Slide down 
| h  Hammer-on 
| x  Dead note 

************************************ 
		  

See also:

tabs Deep Purple - Smoke On The Water (Intermediate Intro) tabs Deep Purple - Space Truckin tabs Deep Purple - Smoke On The Water (Easy Intro) tabs Ira! - Prisão das Ruas tabs Doa - Sexyest Girl tabs Deep Purple - Ted The Mechanic
e-chords

Other versions:

tabs Magna Carta Cartel - Valiant Visions Dawn
auto scroll beats size up size down change color hide chords drawings
tab show chords e-chords YouTube Clip e-chords hide all tabs e-chords go to top tab

share