Maeckes

Xyz

Maeckes

tabs

by  TARIKIKE

save to print version add songbook text version e-mail correct tuner
chordsukulelecavacokeyboardtabbassdrumsharmonicaflute Guitar Pro
close

there isn't a video lesson for this song

chords

Xyz

Key:  D More
Xyz Key AA
Xyz Key A#A#
Xyz Key BB
Xyz Key CC(one step down)
Xyz Key C#C#(half step down)
Xyz Key DD(original key)
Xyz Key D#D#(half step up)
Xyz Key EE(one step up)
Xyz Key FF
Xyz Key F#F#
Xyz Key GG
Xyz Key G#G#
	  		
Tuning: D A D G B e 
 
 

Intro 

e|----------------------|-----------------| 
B|---7-------7---7h8-10-|---7-------7---7-| 
G|-------7--------------|-------4---------| 
D|---------7------------|---------0-------| 
A|----------------------|-----------------| 
D|-0---0-------0--------|-5---5-------5---| 


Verse 

e|----------------------|---------------------| 
B|---7-------7---7h8-10-|---7-------7---7-5---| 
G|-------7--------------|-------4-----------7-| 
D|---------7------------|---------0-----------|  x2 
A|----------------------|---------------------| 
D|-0---0-------0--------|-5---5-------5-------| 

e|-------------------------|--0----------------------| 
B|---6-------5-------5-----|-----------3-------3---2-| 
G|-------4-------4-------7-|-------2-------2---------| 
D|---------0-------0-------|---------0-------0-------| 
A|-------------------------|-------------------------| 
D|-5---5-------5-------5---|-3---3-------3-------3---| 

e|-----------0-------------|-----------0-------------| 
B|---2-----------2-------2-|---3-----------3-------3-| 
G|-------0-----------0-----|-------2-----------2-----| 
D|---------0-----------0---|---------0-----------0---| 
A|-------------------------|-------------------------| 
D|-2---2-------2---2-------|-0---0-------0---0-------| 


e|----------------------|---------------------| 
B|---7-------7---7h8-10-|---7-------7---7-5---| 
G|-------7--------------|-------4-----------7-| 
D|---------7------------|---------0-----------|  x2 
A|----------------------|---------------------| 
D|-0---0-------0--------|-5---5-------5-------| 

e|-------------------------|--0----------------------| 
B|---6-------5-------5-----|-----------3-------3---2-| 
G|-------4-------4-------7-|-------2-------2---------| 
D|---------0-------0-------|---------0-------0-------| 
A|-------------------------|-------------------------| 
D|-5---5-------5-------5---|-3---3-------3-------3---| 

e|-----------0-------------|-----------3-------------| 
B|---2-----------2-------2-|---3-----------3-------3-| 
G|-------0-----------0-----|-------2-----------2-----| 
D|---------0-----------0---|---------0-----------0---| 
A|-------------------------|-------------------------| 
D|-2---2-------2---2-------|-0---0-------0---0-------| 

tabchorus
G6 A7 Bm E7 Beruhig dich, du stirbst nicht G6 A7 D Nur weil du ein Mensch bist.
tab

Full key step upFull key step up
Half key step upHalf key step up
Half key step downHalf key step down
Full key step downFull key step down
auto scroll beats size up size down change color hide chords drawings
tab show chords e-chords YouTube Clip e-chords hide all tabs e-chords go to top tab

share