Mademoiselle K

R U Swimming (live)

Mademoiselle K

tabs

by  ABELAMIN

save to print version add songbook text version e-mail correct tuner
chordsukulelecavacokeyboardtabbassdrumsharmonicaflute Guitar Pro
close

there isn't a video lesson for this song

chords

R U Swimming (live)

	  		
Intro 

e|-------------------------| 
B|-------------------------| 
G|-------------------------| 
D|-------------------------|x4 
A|---------2-5-2-----------| 
E|-3-3-3-3-------3---------| 

e|-------------------------| 
B|-------------------------| 
G|-------------------------| 
D|-------------------------| 
A|---------7-9-7-------10--| 
E|-7-7-7-7-------8-8-8-----| 

Verse 

e|-------------------------| 
B|-------------------------| 
G|-------------------------| 
D|-------------------------|x2 
A|---------2-5-2-----------| 
E|-3-3-3-3-------3---------| 

e|-------------------------| 
B|-------------------------| 
G|-------------------------| 
D|-------------------------| 
A|---------7-9-7-------10--| 
E|-7-7-7-7-------8-8-8-----| 

e|-------3-2-----3--2------| 
B|-------3-3-5---3--3--5---| 
G|-------4-4-5---4--4--5---| 
D|-------5-4-5---5--4--5---| 
A|-------5-2-3---5--2--3---| 
E|-3-3-3-3-x-----3--x------| 

Chorus 1 

e|--8---7---7--7--8--------| 
B|-10--10---8--8--8--------| 
G|-10--10---9--9--9--------| 
D|--0---0---0--0--0--------|x3 
A|-------------------------| 
E|-------------------------| 

Verse 

e|-------------------------| 
B|-------------------------| 
G|-------------------------| 
D|-------------------------|x2 
A|---------2-5-2-----------| 
E|-3-3-3-3-------3---------| 

e|-------------------------| 
B|-------------------------| 
G|-------------------------| 
D|-------------------------| 
A|---------7-9-7-------10--| 
E|-7-7-7-7-------8-8-8-----| 

e|-------3-2-----3--2------| 
B|-------3-3-5---3--3--5---| 
G|-------4-4-5---4--4--5---| 
D|-------5-4-5---5--4--5---| 
A|-------5-2-3---5--2--3---| 
E|-3-3-3-3-x-----3--x------| 

Chorus 1 

e|--8---7---7--7--8--------| 
B|-10--10---8--8--8--------| 
G|-10--10---9--9--9--------| 
D|--0---0---0--0--0--------|x3 
A|-------------------------| 
E|-------------------------| 


Chorus 2 
e|-10-12--10--8--10--12----| 
B|--8--8---8--8---8---8----| 
G|--x--x---x--x---x---x----| 
D|--0--0---0--0---0---0----| 
A|--0--0---0--0---0---0----| 
E|--0--0---0--0---0---0----| 

Chorus 3 

e|-10--3---8-----5---------| 
B|-10--3---8-----5---------| 
G|-10--4---9-----5---------| 
D|-12--5--10-----7---------| 
A|-12--5--10-----7---------| 
E|-10--3---8--7--5---------| 

Chorus 1 

e|--8---7---7--7--8--------| 
B|-10--10---8--8--8--------| 
G|-10--10---9--9--9--------| 
D|--0---0---0--0--0--------| 
A|-------------------------| 
E|-------------------------| 

Chorus 4 

e|--8---7---7--7--5--------| 
B|-10--10---8--8--5--------| 
G|-10--10---9--9--5--------| 
D|--0---0---0--0--x--------|x5 
A|----------------0--------| 
E|-------------------------| 

Chorus 5 

e|-15--13--15--12----------| 
B|-15--12--12--13----------| 
G|-12--12--12--14----------| 
D|-------------------------| 
A|-------------------------| 
E|-------------------------| 

Chorus 4 

e|--8---7---7--7--5--------| 
B|-10--10---8--8--5--------| 
G|-10--10---9--9--5--------| 
D|--0---0---0--0--x--------|x5 
A|----------------0--------| 
E|-------------------------| 
		  

See also:

tabs Wistfull - I Don't Like Bitch tabs Mathieu Chedid - Elle tabs Mathieu Chedid - Mojo tabs Louis-jean Cormier - Jouer Des Tours tabs Wistfull - Feeling all by you (F.A.B.Y.) tabs Dominique A - Le Metier De Faussaire
e-chords

Other versions:

tabs Mademoiselle K - R U Swimming (live)
auto scroll beats size up size down change color hide chords drawings
tab show chords e-chords YouTube Clip e-chords hide all tabs e-chords go to top tab

share