Mac Demarco

Freaking Out The Neighborhood

Mac Demarco

tabs Easy easy

by  TERR_SCHMITZ

save to print version add songbook text version e-mail correct tuner
chordsukulelecavacokeyboardtabbassdrumsharmonicaflute Guitar Pro
close

there isn't a video lesson for this song

chords

Freaking Out The Neighborhood

	  		
Intro chords 
e|-9-----6----4----| 
B|-9-----7----4----| 
G|-9-----6----4----| 
D|-9-----8----4----| 
A|-11----6----6----| 
E|-9----------4----| 

Riff 
e|----9-----9-----9--6-----------6-----------14b16r14-12-11--9--7------------| 
B|-9-----9-----9--------7-----7-----7/9~-------------------------------------| 
G|-------------------------8-------------------------------------------------| 
D|---------------------------------------------------------------------------| 
A|---------------------------------------------------------------------------| 
E|---------------------------------------------------------------------------| 

e|----9-----9-----9--6-----------6-------------------------------------------| 
B|-9-----9-----9--------7-----7-----7/9~-----14b16r14-12-11--9--7------------| 
G|-------------------------8-------------------------------------------------| 
D|---------------------------------------------------------------------------| 
A|---------------------------------------------------------------------------| 
E|---------------------------------------------------------------------------| 

e|----9-----9-----9--6-----------6-----------14b16r14-12-11--9--7------------| 
B|-9-----9-----9--------7-----7-----7/9~-------------------------------------| 
G|-------------------------8-------------------------------------------------| 
D|---------------------------------------------------------------------------| 
A|---------------------------------------------------------------------------| 
E|---------------------------------------------------------------------------| 

e|----9-----9-----9--6-----------6-------------------------------------------| 
B|-9-----9-----9--------7-----7-----7/9~-----7/9-9-9-9-9~--------------------| 
G|-------------------------8-------------------------------------------------| 
D|---------------------------------------------------------------------------| 
A|---------------------------------------------------------------------------| 
E|---------------------------------------------------------------------------| 

Verse chords 
e|-7---------4----4----5----2------7---------4--------------2----------------| 
B|-7----9----4----5----5----2------7----9----4----7----9----2----------------| 
G|-8----8----4----4----6----3------8----8----4----6----9----3----------------| 
D|-9----9----4----6----7----4------9----9----4----7----9----4----------------| 
A|-9----8----6----4----7----4------9----8----6----6----7----4----------------| 
E|-7---------4---------5----2------7---------4--------------2----------------| 

Solo 
e|-----11------9-------------------------------------------------------------| 
B|-12------12-----12--9------9--------9---12~--------7-7-7-7-----7-----------| 
G|-----------------------11-------11--------------/8-----------8-------------| 
D|---------------------------------------------------------------------------| 
A|---------------------------------------------------------------------------| 
E|---------------------------------------------------------------------------| 

e|-----11------9-------------------------------------------------------------| 
B|-12------12-----12--9------9--------12---9~--------------------------------| 
G|-----------------------11----(8h)11--------------6b8-h8-8r6p4---4----------| 
D|-------------------------------------------------------------6------6------| 
A|---------------------------------------------------------------------------| 
E|---------------------------------------------------------------------------| 

e|-----11------9-------------------------------------------------------------| 
B|-12------12-----12--9------9--------9---12~--------7-7-7-7-----7-----------| 
G|-----------------------11-------11--------------/8-----------8-------------| 
D|---------------------------------------------------------------------------| 
A|---------------------------------------------------------------------------| 
E|---------------------------------------------------------------------------| 

e|-----11------9-------------------------------------------------------------| 
B|-12------12-----12--9------9--------12---9~--------------------------------| 
G|-----------------------11----(8h)11--------------6b8-h8-8r6p4---4----------| 
D|-------------------------------------------------------------6------6------| 
A|---------------------------------------------------------------------------| 
E|---------------------------------------------------------------------------| 

 
		  

See also:

tabs Sum 41 - A.N.I.C tabs The Weeknd - Earned It tabs Mac Demarco - Chamber Of Reflection tabs Sum 41 - Summer tabs The Weeknd - The Hills tabs Barenaked Ladies - Pinch Me
e-chords

Other versions:

tabs Mac Demarco - Freaking Out The Neighborhood
auto scroll beats size up size down change color hide chords drawings
tab show chords e-chords YouTube Clip e-chords hide all tabs e-chords go to top tab

share