Lynyrd Skynyrd

Lend A Helping Hand

Lynyrd Skynyrd

tabs

by  ADALGOMES

save to print version add songbook text version e-mail correct tuner
chordsukulelecavacokeyboardtabbassdrumsharmonicaflute Guitar Pro
close

there isn't a video lesson for this song

chords

Lend A Helping Hand

	  		
Tuning: Standard 

Fills and outro solos at end of tab 

Guitar I (Overdriven Tone) 

    Intro 
e|-----------------|-----------------|-----------------|---------| 
B|-----------------|-----------------|-----------------|---------| 
G|--9---9\7---7\4--|--4---2---4---7--|--9---9\7---7\4--|--4---2--| 
D|--9---9\7---7\4--|--4---2---4---7--|--9---9\7---7\4--|--4---2--| 
A|--7---7\5---5\2--|--2---0---2---5--|--7---7\5---5\2--|--2---0--| 
E|-----------------|-----------------|-----------------|---------| 

e|-----------------|-------------|---------------------|--0------------------| 
B|-----------------|---7-----7---|---------------------|--0------------------| 
G|-----------------|---7-----7---|---------------------|--1------------------| 
D|--9\7/9\7/9\7/9--|---7-----7---|--4--4--4--4--5--2---|--2-------0--2p0-----| 
A|--9\7/9\7/9\7/9--|---5---------|--4--4--4--4--5--2---|-----0h2----------2--| 
E|-----------------|-------------|--2--2--2--2--3--0---|---------------------| 

e|-----------------|-------------|---------------------|--0------------------| 
B|-----------------|---7-----7---|---------------------|--0------------------| 
G|-----------------|---7-----7---|---------------------|--1------------------| 
D|--9\7/9\7/9\7/9--|---7-----7---|--4--4--4--4--5--2---|--2-------0--2p0-----| 
A|--9\7/9\7/9\7/9--|---5---------|--4--4--4--4--5--2---|-----0h2----------2--| 
E|-----------------|-------------|--2--2--2--2--3--0---|---------------------| 

1st Verse 

e|-----------------|-------------|---------------------|--0------------------| 
B|-----------------|---7-----7---|---------------------|--0------------------| 
G|-----------------|---7-----7---|---------------------|--1------------------| 
D|--9\7/9\7/9\7/9--|---7-----7---|--4--4--4--4--5--2---|--2-------0--2p0-----| 
A|--9\7/9\7/9\7/9--|---5---------|--4--4--4--4--5--2---|-----0h2----------2--| 
E|-----------------|-------------|--2--2--2--2--3--0---|---------------------| 

e|-----------------|-------------|---------------------|--0------------------| 
B|-----------------|---7-----7---|---------------------|--0------------------| 
G|-----------------|---7-----7---|---------------------|--1------------------| 
D|--9\7/9\7/9\7/9--|---7-----7---|--4--4--4--4--5--2---|--2-------0--2p0-----| 
A|--9\7/9\7/9\7/9--|---5---------|--4--4--4--4--5--2---|-----0h2----------2--| 
E|-----------------|-------------|--2--2--2--2--3--0---|---------------------| 

e|-----------------|-------------|---------------------|--0------------------| 
B|-----------------|---7-----7---|---------------------|--0------------------| 
G|-----------------|---7-----7---|---------------------|--1------------------| 
D|--9\7/9\7/9\7/9--|---7-----7---|--4--4--4--4--5--2---|--2-------0--2p0-----| 
A|--9\7/9\7/9\7/9--|---5---------|--4--4--4--4--5--2---|-----0h2----------2--| 
E|-----------------|-------------|--2--2--2--2--3--0---|---------------------| 

e|-----------------|-------------| 
B|-----------------|---7---------| 
G|-----------------|---7-----2---| 
D|--9\7/9\7/9\7/9--|---7-----2---| 
A|--9\7/9\7/9\7/9--|---------0---| 
E|-----------------|-------------| 

1st Chorus (Clean tone) 

  Let open notes ring 
e|--------------------------|------------------------------| 
B|--------------------------|------------------------------| 
G|--------0--------0--------|------------------------------| 
D|-----0--------0--------0--|--2--2--4--2-------2--4p2-----| 
A|--------------------------|--0--0--0--0--2/4----------4--| 
E|--3--------2--------3-----|------------------------------| 

e|--------------------------|------------------------------| 
B|--------------------------|------------------------------| 
G|--------0--------0--------|------------------------------| 
D|-----0--------0--------0--|--2--2--4--2--4p2-----4p2-----| 
A|--------------------------|--0--0--0--0-------4-------4--| 
E|--3--------2--------3-----|------------------------------| 

e|--------------------------|------------------------------| 
B|--------------------------|------------------------------| 
G|--------0--------0--------|------------------------------| 
D|-----0--------0--------0--|--2--2--4--2-------2--4p2-----| 
A|--------------------------|--0--0--0--0--2/4----------4--| 
E|--3--------2--------3-----|------------------------------| 

Back to overdriven tone on last chord 
e|--------------------------|-------------------| 
B|--------------------------|-------------------| 
G|--------0--------0--------|-------------------| 
D|-----0--------0--------0--|------2------------| 
A|--------------------------|------2------------| 
E|--3--------2--------3-----|------0-------14\--| 

 1st Bridge to verse 

e|-----------------|-------------|---------------------|--0------------------| 
B|-----------------|---7-----7---|---------------------|--0------------------| 
G|-----------------|---7-----7---|---------------------|--1------------------| 
D|--9\7/9\7/9\7/9--|---7-----7---|--4--4--4--4--5--2---|--2-------0--2p0-----| 
A|--9\7/9\7/9\7/9--|---5---------|--4--4--4--4--5--2---|-----0h2----------2--| 
E|-----------------|-------------|--2--2--2--2--3--0---|---------------------| 

e|-----------------|-------------|---------------------|--0------------------| 
B|-----------------|---7-----7---|---------------------|--0------------------| 
G|-----------------|---7-----7---|---------------------|--1------------------| 
D|--9\7/9\7/9\7/9--|---7-----7---|--4--4--4--4--5--2---|--2-------0--2p0-----| 
A|--9\7/9\7/9\7/9--|---5---------|--4--4--4--4--5--2---|-----0h2----------2--| 
E|-----------------|-------------|--2--2--2--2--3--0---|---------------------| 

2nd Verse 
e|-----------------|-------------|---------------------|--0------------------| 
B|-----------------|---7-----7---|---------------------|--0------------------| 
G|-----------------|---7-----7---|---------------------|--1------------------| 
D|--9\7/9\7/9\7/9--|---7-----7---|--4--4--4--4--5--2---|--2-------0--2p0-----| 
A|--9\7/9\7/9\7/9--|---5---------|--4--4--4--4--5--2---|-----0h2----------2--| 
E|-----------------|-------------|--2--2--2--2--3--0---|---------------------| 

e|-----------------|-------------|---------------------|--0------------------| 
B|-----------------|---7-----7---|---------------------|--0------------------| 
G|-----------------|---7-----7---|---------------------|--1------------------| 
D|--9\7/9\7/9\7/9--|---7-----7---|--4--4--4--4--5--2---|--2-------0--2p0-----| 
A|--9\7/9\7/9\7/9--|---5---------|--4--4--4--4--5--2---|-----0h2----------2--| 
E|-----------------|-------------|--2--2--2--2--3--0---|---------------------| 

e|-----------------|-------------|---------------------|--0------------------| 
B|-----------------|---7-----7---|---------------------|--0------------------| 
G|-----------------|---7-----7---|---------------------|--1------------------| 
D|--9\7/9\7/9\7/9--|---7-----7---|--4--4--4--4--5--2---|--2-------0--2p0-----| 
A|--9\7/9\7/9\7/9--|---5---------|--4--4--4--4--5--2---|-----0h2----------2--| 
E|-----------------|-------------|--2--2--2--2--3--0---|---------------------| 
                                 
e|-----------------|-------------| 
B|-----------------|---7---------| 
G|-----------------|---7-----2---| 
D|--9\7/9\7/9\7/9--|---7-----2---| 
A|--9\7/9\7/9\7/9--|---------0---| 
E|-----------------|-------------| 

2nd Chorus (Clean tone) 

  Let open notes ring 
e|--------------------------|------------------------------| 
B|--------------------------|------------------------------| 
G|--------0--------0--------|------------------------------| 
D|-----0--------0--------0--|--2--2--4--2-------2--4p2-----| 
A|--------------------------|--0--0--0--0--2/4----------4--| 
E|--3--------2--------3-----|------------------------------| 

e|--------------------------|------------------------------| 
B|--------------------------|------------------------------| 
G|--------0--------0--------|------------------------------| 
D|-----0--------0--------0--|--2--2--4--2--4p2-----4p2-----| 
A|--------------------------|--0--0--0--0-------4-------4--| 
E|--3--------2--------3-----|------------------------------| 

e|--------------------------|------------------------------| 
B|--------------------------|------------------------------| 
G|--------0--------0--------|------------------------------| 
D|-----0--------0--------0--|--2--2--4--2-------2--4p2-----| 
A|--------------------------|--0--0--0--0--2/4----------4--| 
E|--3--------2--------3-----|------------------------------| 

Back to overdriven tone on last chord 
e|--------------------------|-------------| 
B|--------------------------|-------------| 
G|--------0--------0--------|------2------| 
D|-----0--------0--------0--|------2------| 
A|--------------------------|------0------| 
E|--3--------2--------3-----|-------------| 

Main Solo 

e|---------------|-----------------|---------------|-----------------| 
B|---------------|-----------------|---------------|-----------------| 
G|---------------|----2------------|----------4----|----2------------| 
D|---5---4---5---|----2------------|--5---4---4----|----2------------| 
A|---5---4---5---|----0-----3/12\--|--5---4---2----|----0-----3/12\--| 
E|---3---2---3---|----------3/12\--|--3---2--------|----------3/12\--| 

e|---------------|-----------------|---------------|-----------------| 
B|---------------|-----------------|---------------|-----------------| 
G|---------------|----2------------|----------4----|----2------------| 
D|---5---4---5---|----2------------|--5---4---4----|----2------------| 
A|---5---4---5---|----0-----3/12\--|--5---4---2----|----0-----3/12\--| 
E|---3---2---3---|----------3/12\--|--3---2--------|----------3/12\--| 

e|---------------|--------------|---------------|-----------------| 
B|---------------|--------------|---------------|-----------------| 
G|---------------|------2-------|----------4----|----2------------| 
D|---5---4---5---|------2-------|--5---4---4----|----2------------| 
A|---5---4---5---|------0-------|--5---4---2----|----0-----3/12\--| 
E|---3---2---3---|--------------|--3---2--------|----------3/12\--| 

e|---------------|-----------------| 
B|---------------|-----------------| 
G|---------------|-----------------| 
D|---5---4---5---|----2------------| 
A|---5---4---5---|----2-------14\--| 
E|---3---2---3---|----0-------14\--| 

2nd Bridge to verse 

e|-----------------|-------------|---------------------|--0------------------| 
B|-----------------|---7-----7---|---------------------|--0------------------| 
G|-----------------|---7-----7---|---------------------|--1------------------| 
D|--9\7/9\7/9\7/9--|---7-----7---|--4--4--4--4--5--2---|--2-------0--2p0-----| 
A|--9\7/9\7/9\7/9--|---5---------|--4--4--4--4--5--2---|-----0h2----------2--| 
E|-----------------|-------------|--2--2--2--2--3--0---|---------------------| 

e|-----------------|-------------|---------------------|--0------------------| 
B|-----------------|---7-----7---|---------------------|--0------------------| 
G|-----------------|---7-----7---|---------------------|--1------------------| 
D|--9\7/9\7/9\7/9--|---7-----7---|--4--4--4--4--5--2---|--2-------0--2p0-----| 
A|--9\7/9\7/9\7/9--|---5---------|--4--4--4--4--5--2---|-----0h2----------2--| 
E|-----------------|-------------|--2--2--2--2--3--0---|---------------------| 

3rd Verse 

e|-----------------|-------------|---------------------|--0------------------| 
B|-----------------|---7-----7---|---------------------|--0------------------| 
G|-----------------|---7-----7---|---------------------|--1------------------| 
D|--9\7/9\7/9\7/9--|---7-----7---|--4--4--4--4--5--2---|--2-------0--2p0-----| 
A|--9\7/9\7/9\7/9--|---5---------|--4--4--4--4--5--2---|-----0h2----------2--| 
E|-----------------|-------------|--2--2--2--2--3--0---|---------------------| 

e|-----------------|-------------|---------------------|--0------------------| 
B|-----------------|---7-----7---|---------------------|--0------------------| 
G|-----------------|---7-----7---|---------------------|--1------------------| 
D|--9\7/9\7/9\7/9--|---7-----7---|--4--4--4--4--5--2---|--2-------0--2p0-----| 
A|--9\7/9\7/9\7/9--|---5---------|--4--4--4--4--5--2---|-----0h2----------2--| 
E|-----------------|-------------|--2--2--2--2--3--0---|---------------------| 

e|-----------------|-------------|---------------------|--0------------------| 
B|-----------------|---7-----7---|---------------------|--0------------------| 
G|-----------------|---7-----7---|---------------------|--1------------------| 
D|--9\7/9\7/9\7/9--|---7-----7---|--4--4--4--4--5--2---|--2-------0--2p0-----| 
A|--9\7/9\7/9\7/9--|---5---------|--4--4--4--4--5--2---|-----0h2----------2--| 
E|-----------------|-------------|--2--2--2--2--3--0---|---------------------| 
                                 
e|-----------------|-------------| 
B|-----------------|---7---------| 
G|-----------------|---7-----2---| 
D|--9\7/9\7/9\7/9--|---7-----2---| 
A|--9\7/9\7/9\7/9--|---------0---| 
E|-----------------|-------------| 

3rd Chorus (Clean tone) 

  Let open notes ring 
e|--------------------------|------------------------------| 
B|--------------------------|------------------------------| 
G|--------0--------0--------|------------------------------| 
D|-----0--------0--------0--|--2--2--4--2-------2--4p2-----| 
A|--------------------------|--0--0--0--0--2/4----------4--| 
E|--3--------2--------3-----|------------------------------| 

e|--------------------------|------------------------------| 
B|--------------------------|------------------------------| 
G|--------0--------0--------|------------------------------| 
D|-----0--------0--------0--|--2--2--4--2--4p2-----4p2-----| 
A|--------------------------|--0--0--0--0-------4-------4--| 
E|--3--------2--------3-----|------------------------------| 

e|--------------------------|------------------------------| 
B|--------------------------|------------------------------| 
G|--------0--------0--------|------------------------------| 
D|-----0--------0--------0--|--2--2--4--2-------2--4p2-----| 
A|--------------------------|--0--0--0--0--2/4----------4--| 
E|--3--------2--------3-----|------------------------------| 

Back to overdriven tone on last chord 
e|--------------------------|-----------------| 
B|--------------------------|-----------------| 
G|--------0--------0--------|------2----------| 
D|-----0--------0--------0--|------2----------| 
A|--------------------------|------0-----14\--| 
E|--3--------2--------3-----|------------14\--| 

Outro solo 

e|---------------|-----------------|---------------|-----------------| 
B|---------------|-----------------|---------------|-----------------| 
G|---------------|----2------------|---------------|----2------------| 
D|---5---4---5---|----2------------|--5---4---5----|----2------------| 
A|---5---4---5---|----0-----3/12\--|--5---4---5----|----0-----3/12\--| 
E|---3---2---3---|----------3/12\--|--3---2---3----|----------3/12\--| 

e|---------------|-----------------|---------------|-----------------| 
B|---------------|-----------------|---------------|-----------------| 
G|---------------|----2------------|---------------|----2------------| 
D|---5---4---5---|----2------------|--5---4---5----|----2------------| 
A|---5---4---5---|----0-----3/12\--|--5---4---5----|----0-----3/12\--| 
E|---3---2---3---|----------3/12\--|--3---2---3----|----------3/12\--| 
e|---------------|---------------|--------------------------|----------------| 
B|---------------|---------------|--------------------------|----------------| 
G|---------------|----2----------|--------0--------0--------|---2------------| 
D|---5---4---5---|----2----------|-----0--------0--------0--|---2------------| 
A|---5---4---5---|----0-----3/12\|--------------------------|---0-----3/12\--| 
E|---3---2---3---|----------3/12\|--3--------2--------3-----|---------3/12\--| 

e|---------------|---------------|--------------------------|----------------| 
B|---------------|---------------|--------------------------|----------------| 
G|---------------|----2----------|--------0--------0--------|---2------------| 
D|---5---4---5---|----2----------|-----0--------0--------0--|---2------------| 
A|---5---4---5---|----0-----3/12\|--------------------------|---0-----3/12\--| 
E|---3---2---3---|----------3/12\|--3--------2--------3-----|---------3/12\--| 

e|---------------|---------------|--------------------------|----------------| 
B|---------------|---------------|--------------------------|----------------| 
G|---------------|----2----------|--------0--------0--------|---2------------| 
D|---5---4---5---|----2----------|-----0--------0--------0--|---2------------| 
A|---5---4---5---|----0-----3/12\|--------------------------|---0-----3/12\--| 
E|---3---2---3---|----------3/12\|--3--------2--------3-----|---------3/12\--| 

  Fade out                                              
e|---------------|---------------|--------------------------|----------------| 
B|---------------|---------------|--------------------------|----------------| 
G|---------------|----2----------|--------0--------0--------|---2------------| 
D|---5---4---5---|----2----------|-----0--------0--------0--|---2------------| 
A|---5---4---5---|----0-----3/12\|--------------------------|---0-----3/12\--| 
E|---3---2---3---|----------3/12\|--3--------2--------3-----|---------3/12\--| 

Guitar II (Clean tone) 

Intro 

e|---------------------|---------------------| 
B|---------------------|---------------------| 
G|--9---9\7---7---7\4--|--4---4---2---4---7--| 
D|--9---9\7---7---7\4--|--4---4---2---4---7--| 
A|--7---7\5---5---5\2--|--2---2---0---2---5--| 
E|---------------------|---------------------| 

e|---------------------|--------------| 
B|---------------------|--------------| 
G|--9---9\7---7---7\4--|--4---4---2---| 
D|--9---9\7---7---7\4--|--4---4---2---| 
A|--7---7\5---5---5\2--|--2---2---0---| 
E|---------------------|--------------| 

e|-----------------------|--2-----2---|--------------------|-----0------| 
B|-----------------------|--3-----3---|--------------------|-----0------| 
G|--4-----4-----4-----4--|--2-----2---|--------------------|-----1------| 
D|--4-----4-----4-----4--|--0---------|--4--4--4--4--5--2--|-----2------| 
A|--2--0--2--0--2--0--2--|------------|--4--4--4--4--5--2--|------------| 
E|-----------------------|------------|--2--2--2--2--3--0--|------------| 

e|-----------------------|--2-----2---|--------------------|-----0------| 
B|-----------------------|--3-----3---|--------------------|-----0------| 
G|--4-----4-----4-----4--|--2-----2---|--------------------|-----1------| 
D|--4-----4-----4-----4--|--0---------|--4--4--4--4--5--2--|-----2------| 
A|--2--0--2--0--2--0--2--|------------|--4--4--4--4--5--2--|------------| 
E|-----------------------|------------|--2--2--2--2--3--0--|------------| 

1st Verse 

e|-----------------------|--2-----2---|--------------------|-----0------| 
B|-----------------------|--3-----3---|--------------------|-----0------| 
G|--4-----4-----4-----4--|--2-----2---|--------------------|-----1------| 
D|--4-----4-----4-----4--|--0---------|--4--4--4--4--5--2--|-----2------| 
A|--2--0--2--0--2--0--2--|------------|--4--4--4--4--5--2--|------------| 
E|-----------------------|------------|--2--2--2--2--3--0--|------------| 

e|-----------------------|--2-----2---|--------------------|-----0------| 
B|-----------------------|--3-----3---|--------------------|-----0------| 
G|--4-----4-----4-----4--|--2-----2---|--------------------|-----1------| 
D|--4-----4-----4-----4--|--0---------|--4--4--4--4--5--2--|-----2------| 
A|--2--0--2--0--2--0--2--|------------|--4--4--4--4--5--2--|------------| 
E|-----------------------|------------|--2--2--2--2--3--0--|------------| 

e|-----------------------|--2-----2---|--------------------|-----0------| 
B|-----------------------|--3-----3---|--------------------|-----0------| 
G|--4-----4-----4-----4--|--2-----2---|--------------------|-----1------| 
D|--4-----4-----4-----4--|--0---------|--4--4--4--4--5--2--|-----2------| 
A|--2--0--2--0--2--0--2--|------------|--4--4--4--4--5--2--|------------| 
E|-----------------------|------------|--2--2--2--2--3--0--|------------| 

e|-----------------------|--2----------| 
B|-----------------------|--3----------| 
G|--4-----4-----4-----4--|--2-----2----| 
D|--4-----4-----4-----4--|--0-----2----| 
A|--2--0--2--0--2--0--2--|--------0----| 
E|-----------------------|-------------| 

1st Chorus  

  Let open notes ring 
e|--------------------------|------------------------------| 
B|--------------------------|------------------------------| 
G|--------0--------0--------|------------------------------| 
D|-----0--------0--------0--|--2--2--4--2-------2--4p2-----| 
A|--------------------------|--0--0--0--0--2/4----------4--| 
E|--3--------2--------3-----|------------------------------| 

e|--------------------------|------------------------------| 
B|--------------------------|------------------------------| 
G|--------0--------0--------|------------------------------| 
D|-----0--------0--------0--|--2--2--4--2--4p2-----4p2-----| 
A|--------------------------|--0--0--0--0-------4-------4--| 
E|--3--------2--------3-----|------------------------------| 

e|--------------------------|------------------------------| 
B|--------------------------|------------------------------| 
G|--------0--------0--------|------------------------------| 
D|-----0--------0--------0--|--2--2--4--2-------2--4p2-----| 
A|--------------------------|--0--0--0--0--2/4----------4--| 
E|--3--------2--------3-----|------------------------------| 

e|--------------------------|-------------------| 
B|--------------------------|-------------------| 
G|--------0--------0--------|-------------------| 
D|-----0--------0--------0--|------2------------| 
A|--------------------------|------2------------| 
E|--3--------2--------3-----|------0-------14\--| 

1st Bridge to verse 

e|-----------------------|--2-----2---|--------------------|-----0------| 
B|-----------------------|--3-----3---|--------------------|-----0------| 
G|--4-----4-----4-----4--|--2-----2---|--------------------|-----1------| 
D|--4-----4-----4-----4--|--0---------|--4--4--4--4--5--2--|-----2------| 
A|--2--0--2--0--2--0--2--|------------|--4--4--4--4--5--2--|------------| 
E|-----------------------|------------|--2--2--2--2--3--0--|------------| 

e|-----------------------|--2-----2---|--------------------|-----0------| 
B|-----------------------|--3-----3---|--------------------|-----0------| 
G|--4-----4-----4-----4--|--2-----2---|--------------------|-----1------| 
D|--4-----4-----4-----4--|--0---------|--4--4--4--4--5--2--|-----2------| 
A|--2--0--2--0--2--0--2--|------------|--4--4--4--4--5--2--|------------| 
E|-----------------------|------------|--2--2--2--2--3--0--|------------| 

2nd Verse 

e|-----------------------|--2-----2---|--------------------|-----0------| 
B|-----------------------|--3-----3---|--------------------|-----0------| 
G|--4-----4-----4-----4--|--2-----2---|--------------------|-----1------| 
D|--4-----4-----4-----4--|--0---------|--4--4--4--4--5--2--|-----2------| 
A|--2--0--2--0--2--0--2--|------------|--4--4--4--4--5--2--|------------| 
E|-----------------------|------------|--2--2--2--2--3--0--|------------| 

e|-----------------------|--2-----2---|--------------------|-----0------| 
B|-----------------------|--3-----3---|--------------------|-----0------| 
G|--4-----4-----4-----4--|--2-----2---|--------------------|-----1------| 
D|--4-----4-----4-----4--|--0---------|--4--4--4--4--5--2--|-----2------| 
A|--2--0--2--0--2--0--2--|------------|--4--4--4--4--5--2--|------------| 
E|-----------------------|------------|--2--2--2--2--3--0--|------------| 

e|-----------------------|--2-----2---|--------------------|-----0------| 
B|-----------------------|--3-----3---|--------------------|-----0------| 
G|--4-----4-----4-----4--|--2-----2---|--------------------|-----1------| 
D|--4-----4-----4-----4--|--0---------|--4--4--4--4--5--2--|-----2------| 
A|--2--0--2--0--2--0--2--|------------|--4--4--4--4--5--2--|------------| 
E|-----------------------|------------|--2--2--2--2--3--0--|------------| 

e|-----------------------|--2----------| 
B|-----------------------|--3----------| 
G|--4-----4-----4-----4--|--2-----2----| 
D|--4-----4-----4-----4--|--0-----2----| 
A|--2--0--2--0--2--0--2--|--------0----| 
E|-----------------------|-------------| 

2nd Chorus 

  Let notes ring 
e|--------------------------|------------------------------| 
B|--------3--------3-----3--|------------------------------| 
G|-----0--------0-----0-----|------------------------------| 
D|--------------------------|--2--2--4--2-------2--4p2-----| 
A|--------------------------|--0--0--0--0--2/4----------4--| 
E|--3--------2--------------|------------------------------| 

e|--------------------------|------------------------------| 
B|--------3--------3-----3--|------------------------------| 
G|-----0--------0-----0-----|------------------------------| 
D|--------------------------|--2--2--4--2--4p2-----4p2-----| 
A|--------------------------|--0--0--0--0-------4-------4--| 
E|--3--------2--------------|------------------------------| 

e|--------------------------|------------------------------| 
B|--------3--------3-----3--|------------------------------| 
G|-----0--------0-----0-----|------------------------------| 
D|--------------------------|--2--2--4--2-------2--4p2-----| 
A|--------------------------|--0--0--0--0--2/4----------4--| 
E|--3--------2--------------|------------------------------| 

                                    Pick scrape     
e|--------------------------|----------| 
B|--------3--------3-----3--|----------| 
G|-----0--------0-----0-----|----2-----| 
D|--------------------------|----2-----| 
A|--------------------------|----0-----| 
E|--3--------2--------------|----------| 

Main solo ( Overdriven tone) 

e|--------------------|-------------------------------------| 
B|--12b---12b---12br--|--10------10------10--12p10------10--| 
G|--------------------|------11------11-------------11------| 
D|--------------------|-------------------------------------| 
A|--------------------|-------------------------------------| 
E|--------------------|-------------------------------------| 

e|--12b--12b--12b--12pb--12pbr--|--12--10p9--10--12------| 
B|------------------------------|--------------------10--| 
G|------------------------------|------------------------| 
D|------------------------------|------------------------| 
A|------------------------------|------------------------| 
E|------------------------------|------------------------| 

e|---------------------------------------------| 
B|--------10--10--------10--10--12p10------10--| 
G|--8/11----------8/11-----------------11------| 
D|---------------------------------------------| 
A|---------------------------------------------| 
E|---------------------------------------------| 

  Let notes ring 
e|-------12-------12-------12-------------| 
B|--12b------12b------12b------12pbr--10--| 
G|----------------------------------------| 
D|----------------------------------------| 
A|----------------------------------------| 
E|----------------------------------------| 

e|--------------------14--12--|--12----------------------------| 
B|--12--10--------10----------|--12br--10------10--10----------| 
G|----------9/11--------------|------------11--------------14--| 
D|----------------------------|------------------------16------| 
A|----------------------------|--------------------------------| 
E|----------------------------|--------------------------------| 

e|---------------------------17p14-------------------------------| 
B|-------14--17p14-------14--------------14--17p14------14-------| 
G|--16b-------------16b-------------16b-------------16------16b--| 
D|---------------------------------------------------------------| 
A|---------------------------------------------------------------| 
E|---------------------------------------------------------------| 

e|-------------------------------|--------------------|---------------------| 
B|-------------------------------|--8b--8b--8br--8p5--|---------------------| 
G|--14------14--14--14--14-------|--------------------|--7b--7--7b--7br--5--| 
D|------16------------------16\--|--------------------|---------------------| 
A|-------------------------------|--------------------|---------------------| 
E|-------------------------------|--------------------|---------------------| 

e|-----------------------------------|-------------| 
B|-----------------------------------|-------------| 
G|--7--5----------2--0---------------|-------------| 
D|--------7p5-----------2p0----------|-------------| 
A|-------------7-------------2p0-----|---2-----14\-| 
E|--------------------------------3--|---0-----14\-| 

2nd Bridge to verse (Clean tone) 

e|-----------------------|--2-----2---|--------------------|-----0------| 
B|-----------------------|--3-----3---|--------------------|-----0------| 
G|--4-----4-----4-----4--|--2-----2---|--------------------|-----1------| 
D|--4-----4-----4-----4--|--0---------|--4--4--4--4--5--2--|-----2------| 
A|--2--0--2--0--2--0--2--|------------|--4--4--4--4--5--2--|------------| 
E|-----------------------|------------|--2--2--2--2--3--0--|------------| 

e|-----------------------|--2-----2---|--------------------|-----0------| 
B|-----------------------|--3-----3---|--------------------|-----0------| 
G|--4-----4-----4-----4--|--2-----2---|--------------------|-----1------| 
D|--4-----4-----4-----4--|--0---------|--4--4--4--4--5--2--|-----2------| 
A|--2--0--2--0--2--0--2--|------------|--4--4--4--4--5--2--|------------| 
E|-----------------------|------------|--2--2--2--2--3--0--|------------| 

3rd Verse 
e|-----------------------|--2-----2---|--------------------|-----0------| 
B|-----------------------|--3-----3---|--------------------|-----0------| 
G|--4-----4-----4-----4--|--2-----2---|--------------------|-----1------| 
D|--4-----4-----4-----4--|--0---------|--4--4--4--4--5--2--|-----2------| 
A|--2--0--2--0--2--0--2--|------------|--4--4--4--4--5--2--|------------| 
E|-----------------------|------------|--2--2--2--2--3--0--|------------| 

e|-----------------------|--2-----2---|--------------------|-----0------| 
B|-----------------------|--3-----3---|--------------------|-----0------| 
G|--4-----4-----4-----4--|--2-----2---|--------------------|-----1------| 
D|--4-----4-----4-----4--|--0---------|--4--4--4--4--5--2--|-----2------| 
A|--2--0--2--0--2--0--2--|------------|--4--4--4--4--5--2--|------------| 
E|-----------------------|------------|--2--2--2--2--3--0--|------------| 

e|-----------------------|--2-----2---|--------------------|-----0------| 
B|-----------------------|--3-----3---|--------------------|-----0------| 
G|--4-----4-----4-----4--|--2-----2---|--------------------|-----1------| 
D|--4-----4-----4-----4--|--0---------|--4--4--4--4--5--2--|-----2------| 
A|--2--0--2--0--2--0--2--|------------|--4--4--4--4--5--2--|------------| 
E|-----------------------|------------|--2--2--2--2--3--0--|------------| 

e|-----------------------|--2----------| 
B|-----------------------|--3----------| 
G|--4-----4-----4-----4--|--2-----2----| 
D|--4-----4-----4-----4--|--0-----2----| 
A|--2--0--2--0--2--0--2--|--------0----| 
E|-----------------------|-------------| 

3rd Chorus 

  Let notes ring 
e|--------------------------|------------------------------| 
B|--------3--------3-----3--|------------------------------| 
G|-----0--------0-----0-----|------------------------------| 
D|--------------------------|--2--2--4--2-------2--4p2-----| 
A|--------------------------|--0--0--0--0--2/4----------4--| 
E|--3--------2--------------|------------------------------| 

e|--------------------------|------------------------------| 
B|--------3--------3-----3--|------------------------------| 
G|-----0--------0-----0-----|------------------------------| 
D|--------------------------|--2--2--4--2--4p2-----4p2-----| 
A|--------------------------|--0--0--0--0-------4-------4--| 
E|--3--------2--------------|------------------------------| 

e|--------------------------|------------------------------| 
B|--------3--------3-----3--|------------------------------| 
G|-----0--------0-----0-----|------------------------------| 
D|--------------------------|--2--2--4--2-------2--4p2-----| 
A|--------------------------|--0--0--0--0--2/4----------4--| 
E|--3--------2--------------|------------------------------| 

e|--------------------------|----------| 
B|--------3--------3-----3--|----------| 
G|-----0--------0-----0-----|----2-----| 
D|--------------------------|----2-----| 
A|--------------------------|----0-----| 
E|--3--------2--------------|----------| 

Outro solo Guitar I( Overdriven tone) 

e|-------------17-------------17-------------| 
B|-------------------------------------------| 
G|--19b--19pb------19b--19pb------19b--19pb--| 
D|-------------------------------------------| 
A|-------------------------------------------| 
E|-------------------------------------------| 

e|--17-------------17-------20-------------| 
B|------------------------------20---------| 
G|------19b--19pb------19b----------19pbr--| 
D|-----------------------------------------| 
A|-----------------------------------------| 
E|-----------------------------------------| 

e|------------------------|--------------------------------| 
B|------------------------|----------------------------20--| 
G|--17--19br--17--19------|--17--19br--17--19------17------| 
D|--------------------19--|--------------------19----------| 
A|------------------------|--------------------------------| 
E|------------------------|--------------------------------| 

e|--------------------------------------|-----------------------------------| 
B|--19--17------17----------------------|--5----------5----------5----------| 
G|----------19------17--19--19p17-------|--5----------5----------5----------| 
D|---------------------------------19\--|-----7p5--------7p5--------7p5-----| 
A|--------------------------------------|----------7----------7----------7--| 
E|--------------------------------------|-----------------------------------| 

e|---------------------------|--------------------------------| 
B|--5----------5----------5--|--7/8--8--8--7/8--8--8--7/8--8--| 
G|--5----------5----------5--|--8/9--9--9--8/9--9--9--8/9--9--| 
D|-----7p5--------7p5--------|--------------------------------| 
A|----------7----------7-----|--------------------------------| 
E|---------------------------|--------------------------------| 

e|--------------------------------------|-----------------------------------| 
B|-------8-----------10-----------8-----|--------10------12p10------10--12--| 
G|--8/9-----9--9/11------11--8/9-----9--|--9/11------11---------11----------| 
D|--------------------------------------|-----------------------------------| 
A|--------------------------------------|-----------------------------------| 
E|--------------------------------------|-----------------------------------| 

e|-------12----------------12br--|------------------------------------|  
B|--12b------12br--10------------|--12br--10------12p10------10-------| 
G|---------------------11--------|------------11---------11------12b--| 
D|-------------------------------|------------------------------------| 
A|-------------------------------|------------------------------------| 
E|-------------------------------|------------------------------------| 

e|------------------------------------|---------------------------------15--| 
B|--10--10-------10--10-------10--10--|---------13--15p13------13--15b------| 
G|----------12b----------12b----------|--11/14-------------14---------------| 
D|------------------------------------|-------------------------------------| 
A|------------------------------------|-------------------------------------| 
E|------------------------------------|-------------------------------------| 

e|-------15-------15-------15-------15-------------| 
B|--15b------15b------15b------15b------15br--13---| 
G|-------------------------------------------------| 
D|-------------------------------------------------| 
A|-------------------------------------------------| 
E|-------------------------------------------------| 

e|---------12--15p12------12--15p12------12--15p12------| 
B|--12h15-------------15-------------15-------------15--| 
G|------------------------------------------------------| 
D|------------------------------------------------------| 
A|------------------------------------------------------| 
E|------------------------------------------------------| 

e|--12--15p12------12--15p12------12--15p12------12--15p12------| 
B|-------------15-------------15-------------15-------------15--| 
G|--------------------------------------------------------------| 
D|--------------------------------------------------------------| 
A|--------------------------------------------------------------| 
E|--------------------------------------------------------------| 

e|--12--15p12------12--15p12------12--15p12------12--15p12------12--15p12--| 
B|-------------15-------------15-------------15-------------15-------------| 
G|-------------------------------------------------------------------------| 
D|-------------------------------------------------------------------------| 
A|-------------------------------------------------------------------------| 
E|-------------------------------------------------------------------------| 

e|--15p12--15p12--15p12--15p12--15p12--15p12-------| 
B|--------------------------------------------15---| 
G|-------------------------------------------------| 
D|-------------------------------------------------| 
A|-------------------------------------------------| 
E|-------------------------------------------------| 

e|--15p12--15p12------15p12--15p12------15p12--15p12------15b--15b--| 
B|----------------15----------------15----------------15------------| 
G|------------------------------------------------------------------| 
D|------------------------------------------------------------------| 
A|------------------------------------------------------------------| 
E|------------------------------------------------------------------| 

  Fade out 
e|--15b--15p12------12----------------------| 
B|--------------15------13--------------13--| 
G|--------------------------14--12--14------| 
D|------------------------------------------| 
A|------------------------------------------| 
E|------------------------------------------| 

Outro solo Guitar II ( Overdriven) 

Played over the top of guitar I outro solo 

e|-----------------|-----------------|----------5------|--5------------------| 
B|-----------------|-----------------|--5h7--------7---|-----------------10--| 
G|-----------------|-----------------|-----------------|-----------8/11------| 
D|-----------------|-----------------|-----------------|---------------------| 
A|-----------------|-----------------|-----------------|---------------------| 
E|-----------------|-----------------|-----------------|---------------------| 

e|--12b--12pbr--10--12--|--------------------------------|-------------------| 
B|----------------------|--12br--10------10--12--12------|--10h12--10----5---| 
G|----------------------|------------11--------------11--|---------------5---| 
D|----------------------|--------------------------------|-------------------| 
A|----------------------|--------------------------------|-------------------| 
E|----------------------|--------------------------------|-------------------| 

e|------------------------|--------------------------------------| 
B|--5---------------------|------8-----------10-----------8------| 
G|--5---------------------|--8/9-----9--9/11------11--8/9-----9--| 
D|-----7--5---------------|--------------------------------------| 
A|-----------7--5--3------|--------------------------------------| 
E|--------------------5\--|--------------------------------------| 

e|-----------------------------------|-------12----------------12br--| 
B|--------10------12p10------10--12--|--12b------12br--10------------| 
G|--9/11------11---------11----------|---------------------11--------| 
D|-----------------------------------|-------------------------------| 
A|-----------------------------------|-------------------------------| 
E|-----------------------------------|-------------------------------| 

e|-------------------------------|-----------------------------------------| 
B|--12br--10------12p10------10--|-------10--10-------10--10-------10--10--| 
G|------------11---------11------|--12b----------12b----------12b----------| 
D|-------------------------------|-----------------------------------------| 
A|-------------------------------|-----------------------------------------| 
E|-------------------------------|-----------------------------------------| 

e|-----------------------------------------|---------------------------------| 
B|--13--12p10------13--12p10------10/------|-13--15p13------13--15p13-----15b| 
G|-------------11-------------11-------14\-|------------14------------14-----| 
D|-----------------------------------------|---------------------------------| 
A|-----------------------------------------|---------------------------------| 
E|-----------------------------------------|---------------------------------| 

e|--15-------15------------|--------------------|--------------------| 
B|------15b------15br--13--|--------------------|--------------------| 
G|-------------------------|--------------------|--------------------| 
D|-------------------------|--------------------|--------------------| 
A|-------------------------|--------------------|--------------------| 
E|-------------------------|--------------------|--------------------| 

e|---------12--15p12------12--15p12------12--15p12--15b--15b--| 
B|--12h15-------------15-------------15-----------------------| 
G|------------------------------------------------------------| 
D|------------------------------------------------------------| 
A|------------------------------------------------------------| 
E|------------------------------------------------------------| 

e|--15b--15p12------12---------------------|------15-------------------------| 
B|--------------15------13--------------13-|-15b------15p13------13----------| 
G|--------------------------14--12--14-----|-----------------14------14p12---| 
D|-----------------------------------------|-------------------------------14| 
A|-----------------------------------------|---------------------------------| 
E|-----------------------------------------|---------------------------------| 

Fade out 
e|--------------| 
B|--------------| 
G|--------------| 
D|--12--10------| 
A|----------12--| 
E|--------------| 

Intro solo 

e|---------7----------|--------|-----------------------| 
B|------7-------------|--------|-----------------------| 
G|--9b--------9br--7--|--9-----|--------------------7--| 
D|--------------------|--------|---------------7/9-----| 
A|--------------------|--------|-----------------------| 
E|--------------------|--------|-----------------------| 

e|-----------------------------|----------------------------| 
B|-----------------------------|----------------------------| 
G|--9b--9pb--9pb--9pb--9p7-----|--7----------7--------7-----| 
D|--------------------------9--|-----9p7--------9--7-----9--| 
A|-----------------------------|----------9-----------------| 
E|-----------------------------|----------------------------| 

1st fill 

e|------------------------|----------| 
B|--15----15----15----15--|----12----| 
G|------------------------|----------| 
D|------------------------|----------| 
A|------------------------|----------| 
E|------------------------|----------| 

2nd fill 

e|---------------------------------| 
B|---------12--15p12------12-------| 
G|--11h13-------------14------14b--| 
D|---------------------------------| 
A|---------------------------------| 
E|---------------------------------| 

3rd fill 

e|-----------------------| 
B|-----------------------| 
G|----------------7+-----| 
D|--7--7--7--7h9------9--| 
A|-----------------------| 
E|-----------------------| 

1st Bridge solo 

e|---------7-----------|-------------|----------7--|-------------|-----------| 
B|------7--------------|-------------|------10-----|--10------7--|---10brb---| 
G|--9b--------9pbr--7--|--9b-----9b--|--9b---------|-------------|-----------| 
D|---------------------|-------------|-------------|-------------|-----------| 
A|---------------------|-------------|-------------|-------------|-----------| 
E|---------------------|-------------|-------------|-------------|-----------| 

4th fill 

e|-------------------------| 
B|--15----15----15b----12--| 
G|-------------------------| 
D|-------------------------| 
A|-------------------------| 
E|-------------------------| 

5th fill 

e|-------------------------| 
B|--15b--15pbr--12--15p12--| 
G|-------------------------| 
D|-------------------------| 
A|-------------------------| 
E|-------------------------| 

6th fill 

e|--19--19--19p17p14--17b--| 
B|-------------------------| 
G|-------------------------| 
D|-------------------------| 
A|-------------------------| 
E|-------------------------| 

2nd Bridge solo 

e|-------7-----10p7-----|--------------------|----------------| 
B|--5/7-----7--------7--|--10b--10b--10b--7--|--10------10br--| 
G|----------------------|--------------------|----------------| 
D|----------------------|--------------------|----------------| 
A|----------------------|--------------------|----------------| 
E|----------------------|--------------------|----------------| 

e|------------------|-----------------------------------| 
B|------------------|-----------------------------------| 
G|--9b--9b--9br--7--|--9--9hb--9p7-----7----------7-----| 
D|------------------|---------------9-----9--9p7-----9--| 
A|------------------|-----------------------------------| 
E|------------------|-----------------------------------| 

7th fill 

e|----------7--10p7----------| 
B|--5/7--7-----------7--10b--| 
G|---------------------------| 
D|---------------------------| 
A|---------------------------| 
E|---------------------------| 

8th fill 

e|-------------------| 
B|--15hb--12--15p12--| 
G|-------------------| 
D|-------------------| 
A|-------------------| 
E|-------------------| 

9th fill 

e|------------------| 
B|------------------| 
G|--9--9--9b--7-----| 
D|---------------9--| 
A|------------------| 
E|------------------| 

************************************ 

| /   slide up 
| \   slide down 
| h   hammer-on 
| p   pull-off 
| ~   vibrato 
| +   harmonic 
| x   Mute note 
| b   Bend 
| pb  Pre-bend 
| br  Bend release 
| pbr Pre-bend release 
| brb Bend release bend 

************************************ 
		  

See also:

tabs Janis Joplin - Trouble in mind tabs Journey - Any Way You Want It tabs Janis Joplin - Move Over tabs Johnny Cash - Hurt tabs Jimi Hendrix - Voodoo Child tabs Johnny Cash - Ghost Riders In The Sky (solo)
e-chords

Other versions:

tabs Lynyrd Skynyrd - Lend A Helping Hand
auto scroll beats size up size down change color hide chords drawings
tab show chords e-chords YouTube Clip e-chords hide all tabs e-chords go to top tab

share