Luzbel

De Un Solo Golpe

Luzbel

tabs Intermediate intermediate

by  BRUNBLAZKOWSKI

save to print version add songbook text version e-mail correct tuner
chordsukulelecavacokeyboardtabbassdrumsharmonicaflute Guitar Pro
close

there isn't a video lesson for this song

chords

De Un Solo Golpe

(Arturo Huizar)

	  		pues aki les va como la tocan en directo 
esta si esta terminada, no komo akella de akel piche burro k no termino. 
espero y les guste 

Intro 
  Moderately Slow Rock Q=120 
  Emadd9/B                            Emadd9/B 
 4/4 
  Gtr I 
  PM                PM----|                             PM----| 
  E E E E E E E E   E E E E E E E E   E E E E E E E E   E E E E E E E E 
|-----------------|---------------0-|-----------------|---------------0-| 
|-----------0-----|---------0-------|-----------0-----|---------0-------| 
|-----0-------0---|-----0-------0---|-----0-------0---|-----0-------0---| 
|---4---4-------4-|---4---4---4-----|---4---4-------4-|---4---4---4-----| 
|-2-------2-------|-2---------------|-2-------2-------|-2---------------| 
|-----------------|-----------------|-----------------|-----------------| 


  Em/C                                Emadd9/D         Em 
                    PM----|                             ~~ 
  E E E E E E E E   E E E E E E E E   E E E Q  E E E    H       H 
|-----------------|---------------0-|----------------|-^0----^<12>----| 
|-----------0-----|---------0-------|-------0--------|-^0----^<12>----| 
|-----0-------0---|-----0-------0---|-----0----0---0-|-^0----^<12>----| 
|---2---2-------2-|---2---2---2-----|---4--------4---|----------------| 
|-3-------3-------|-3---------------|-5--------------|----------------| 
|-----------------|-----------------|----------------|----------------| 


          Amadd9            Em/A 
 2/4     4/4 
  H       E E E E E E E E   E E E E   E    E   E   E 
|------||-------------0---|---------<12>--------------| 
|------||-------0-------0-|-------0------<12>---------| 
|------||-----5---5-------|-----4-------------<7>-----| 
|------||---7-------7-----|---5-------------------<7>-| 
|------||-0---------------|-0-------------------------| 
|------||-----------------|---------------------------| 


  Amadd9            Em/A 
                             ~~ 
  E E E E E E E E   E E E E  H 
|-------------0---|---------^0----| 
|-------0-------0-|-------0-^0----| 
|-----5---5-------|-----4---^4----| 
|---7-------7-----|---5-----^5----| 
|-0---------------|-0-------------| 
|-----------------|---------------| 


  Fmaj7+11/A                        Fmaj7+11/A        E 
                             ~~                        ~~ 
  E E E E E E E E   E E E E  H      E E E E E E E E    W 
|---------0-------|---------^0----|---------0-------|-^0----| 
|-------0---0-----|-------0-^0----|-------0---0-----|-^0----| 
|-----2-------2---|-----2---^2----|-----2-------2---|-^1----| 
|---3-----------3-|---3-----------|---3-----------3-|-^2----| 
|-0---------------|-0-------------|-0---------------|-^2----| 
|-----------------|---------------|-----------------|-------| 


         Am       Bmadd1Dm/A   Am 
 4/4 
  H    E  E E E   E E E  E E E  E E 
|---------------|-------------------| 
|--------/5-5---|-3-3---/6-6---/5-5-| 
|--------/5-5---|-4-4---/7-7---/5-5-| 
|--------/7-7---|-2-2---/7-7---/7-7-| 
|------0------0-|-----0------0------| 
|---------------|-------------------| 


                                     Am     Bmadd1AmA 
  +Q     E    E    E    E    Q     E  E E E E E E  E 
|------<12>----------------<12>--|--------------------| 
|-(5)-------<12>------<12>-------|---/5-5---3-3----1--| 
|-(5)------------<12>------------|---/5-5---4-4---/2--| 
|--------------------------------|---/7-7---2-2---/2--| 
|--------------------------------|-0------0-----0-----| 
|--------------------------------|--------------------| 


                   Am     Bmadd1Dm/A 
  ~ 
  H      H       E  E E E E E E  E 
|------<12>----|-------------------| 
|-1----<12>----|---/5-5---3-3---/6-| 
|-2----<12>----|---/5-5---4-4---/7-| 
|-2------------|---/7-7---2-2---/7-| 
|--------------|-0------0-----0----| 
|--------------|-------------------| 


      Am                                      Am 
  E E  E E +Q     E    E      E    E    Q   E  E E E 
|---------------<12>------|-----------<12>-----------| 
|-6---/5-5-(5)-------<12>-|------<12>---------/5-5---| 
|-7---/5-5-(5)------------|-<12>--------------/5-5---| 
|-7---/7-7-(7)------------|-------------------/7-7---| 
|---0---------------------|-----------------0------0-| 
|-------------------------|--------------------------| 


                  1st Verse 
  Bmadd1AmA                            Amadd9 
           ~ 
  E E E  E H       Q  E  E E E E.S     E E E E E E E E   +Q   E  E E E E.S 
|---------------||-----------------||----------0-------|-------------------| 
|-3-3---/1-1----||-----------------||o-------0---0-----|-------------------| 
|-4-4---/2-2----||-----------------||------5-------5---|-------------------| 
|-2-2----2-2----||---------7-5-5s7-||----7-----------7-|-(7)-------7-5-5s7-| 
|-----0---------||------/7---------||o-0---------------|--------/7---------| 
|---------------||-----------------||------------------|-------------------| 


  Amadd9                                Fmaj7+11/A 
  E E E E E E E E   +Q   E  E E E E.S   E E E E E E E E   +Q   E  E E E E.S 
|---------0-------|-------------------|---------0-------|-------------------| 
|-------0---0-----|-------------------|-----0-----0-3---|-------------------| 
|-----5-------5---|-------------------|---2---2-------2-|-(2)---------------| 
|---7-----------7-|-(7)-------7-5-5s2-|-3---------------|-----------7-5-5s7-| 
|-0---------------|--------/7---------|-----------------|--------/7---------| 
|-----------------|-------------------|-----------------|-------------------| 


  1. 
  Amadd9 
  E E E E   E    E   E   E     +Q.     E E E E.S 
|---------<12>--------------|---------------------|| 
|-------0------<12>---------|--------------------o|| 
|-----5-------------<7>-----|---------------------|| 
|---7-------------------<7>-|-(<7>)------7-5-5s7--|| 
|-0-------------------------|---------/7---------o|| 
|---------------------------|---------------------|| 


 2. 
  Amadd9 
  E E E E   E    E   E   E     +H.       Q 
|---------<12>--------------|---------------| 
|-------0------<12>---------|---------------| 
|-----5-------------<7>-----|---------------| 
|---7-------------------<7>-|-(<7>)---------| 
|-0-------------------------|---------------| 
|---------------------------|---------------| 


   Bridge 
                                                         1. 
    Amadd9            Em/A              Fmaj7+11/A        E 
    E E E E E E E E   E E E E E E E E   E E E E E E E E   E E E E E E E E 
||--------------0---|-------------0---|---------0-------|---------0---------|| 
||o-------0-------0-|-------0-------0-|-------0---0-----|-------0---0------o|| 
||------5---5-------|-----4---4-------|-----2-------2---|-----1-------1-----|| 
||----7-------7-----|---5-------5-----|---3-----------3-|---2-----------2---|| 
||o-0---------------|-0---------------|-0---------------|-2----------------o|| 
||------------------|-----------------|-----------------|-------------------|| 


                            Chorus 
  2. 
  E                          A5      G5A5             A5G5 
                             Gtr II 
   ~~ 
   W          +H     H       H    Q  E E   +E  E H    E E 
|-^0--------|-(0)---------||-------------|----------------| 
|-^0--------|-(0)---------||-------------|----------------| 
|-^1--------|-(1)---------||-------------|----------------| 
|-^2--------|-(2)---------||-7----7--5-7-|-(7)--------7-5-| 
|-^2--------|-(2)---------||-7----7--5-7-|-(7)--------7-5-| 
|-----------|-------------||-5----5--3-5-|-(5)--------5-3-| 


  E5       F5E5                  A5      G5A5             A5G5 
  H    E E E E   +E  E H    Q    H    Q  E E   +E  E H    E E 
|--------------|---------------|-------------|----------------| 
|--------------|---------------|-------------|----------------| 
|--------------|---------------|-------------|----------------| 
|-2----2-2-3-2-|-(2)--------2--|-7----7--5-7-|-(7)--------7-5-| 
|-2----2-2-3-2-|-(2)--------2--|-7----7--5-7-|-(7)--------7-5-| 
|-0----0-0-1-0-|-(0)--------0--|-5----5--3-5-|-(5)--------5-3-| 


  E5       F5    E5                F5       E5F5 
  H    E E E E   +Q   Q  E E E E   H    E E E E   +E  H    E E E 
|--------------|-----------------|--------------|----------------| 
|--------------|-----------------|--------------|----------------| 
|--------------|-----------------|--------------|----------------| 
|-2----2-2-3-2-|-(2)-------2-2-2-|-3----3-3-2-3-|-(3)------3-3-3-| 
|-2----2-2-3-2-|-(2)-------2-2-2-|-3----3-3-2-3-|-(3)------3-3-3-| 
|-0----0-0-1-0-|-(0)-------0-0-0-|-1----1-1-0-1-|-(1)------1-1-1-| 


  G5       F5G5               F5  E5       F5E5           G5  F5 
  H    E E E E   +E  H    E E E   H    E E E E   +E  H    E E E 
|--------------|----------------|--------------|----------------| 
|--------------|----------------|--------------|----------------| 
|--------------|----------------|--------------|----------------| 
|-5----5-5-3-5-|-(5)------5-5-3-|-2----2-2-3-2-|-(2)------5-5-3-| 
|-5----5-5-3-5-|-(5)------5-5-3-|-2----2-2-3-2-|-(2)------5-5-3-| 
|-3----3-3-1-3-|-(3)------3-3-1-|-0----0-0-1-0-|-(0)------3-3-1-| 


                               Interlude 
  E5       F5E5                   Am     Bmadd1Dm/A     Am 
                            Gtr I 
  H    E E E E   +W             E  E E E E E E  E   E E  E E +H 
|--------------|------------||--------------------|-----------------| 
|--------------|------------||o---/5-5---3-3---/6-|-6---/5-5-(5)----| 
|--------------|------------||----/5-5---4-4---/7-|-7---/5-5-(5)----| 
|-2----2-2-3-2-|-(2)--------||----/7-7---2-2---/7-|-7---/7-7-(7)----| 
|-2----2-2-3-2-|-(2)--------||o-0------0-----0----|---0-------------| 
|-0----0-0-1-0-|-(0)--------||--------------------|-----------------| 


                                   2nd Verse 
                     1.            2. 
    Am     Bmadd1AmA 
  E  E E E E E E  E   H    H        Q.    E E E E.S 
|-------------------|------------||-----------------| 
|---/5-5---3-3---/1-|-1---------o||-1---------------| 
|---/5-5---4-4---/2-|-2----------||-2---------------| 
|---/7-7---2-2---/2-|-2----------||-2-------7-5-5s7-| 
|-0------0-----0----|-----------o||------/7---------| 
|-------------------|------------||-----------------| 


    Amadd9                                Amadd9 
    Gtr I 
    E E E E E E E E   +Q   E  E E E E.S   E E E E E E E E   +Q   E  E E E E.S 
||----------0-------|-------------------|---------0-------|--------------------| 
||o-------0---0-----|-------------------|-------0---0-----|--------------------| 
||------5-------5---|-------------------|-----5-------5---|--------------------| 
||----7-----------7-|-(7)-------7-5-5s7-|---7-----------7-|-(7)-------7-5-5s2--| 
||o-0---------------|--------/7---------|-0---------------|--------/7----------| 
||------------------|-------------------|-----------------|--------------------| 


  Fmaj7+11/A 
  E E E E E E E E   +Q   E  E E E E.S 
|---------0-------|-------------------| 
|-----0-------3---|-------------------| 
|---2---2---2---2-|-(2)---------------| 
|-3---------------|-----------7-5-5s7-| 
|-----------------|--------/7---------| 
|-----------------|-------------------| 


 1. 
  Amadd9 
  E E E E   E    E   E   E     +Q.     E E E E.S 
|---------<12>--------------|---------------------|| 
|-------0------<12>---------|--------------------o|| 
|-----5-------------<7>-----|---------------------|| 
|---7-------------------<7>-|-(<7>)------7-5-5s7--|| 
|-0-------------------------|---------/7---------o|| 
|---------------------------|---------------------|| 


  2. 
  Amadd9 
  E E E E   E    E   E   E     +H      H 
|---------<12>--------------|---------------| 
|-------0------<12>---------|---------------| 
|-----5-------------<7>-----|---------------| 
|---7-------------------<7>-|-(<7>)---------| 
|-0-------------------------|---------------| 
|---------------------------|---------------| 


   Bridge 
    Amadd9            Em/A 
    E E E E E E E E   E E E E E E E E 
||--------------0---|-------------0---| 
||o-------0-------0-|-------0-------0-| 
||------5---5-------|-----4---4-------| 
||----7-------7-----|---5-------5-----| 
||o-0---------------|-0---------------| 
||------------------|-----------------| 


                   1.                  2. 
  Fmaj7+11/A        E                   E 
                                         ~~ 
  E E E E E E E E   E E E E E E E E      W          +H     H 
|---------0-------|---------0--------||-^0--------|-(0)---------| 
|-------0---0-----|-------0---0-----o||-^0--------|-(0)---------| 
|-----2-------2---|-----1-------1----||-^1--------|-(1)---------| 
|---3-----------3-|---2-----------2--||-^2--------|-(2)---------| 
|-0---------------|-2---------------o||-^2--------|-(2)---------| 
|-----------------|------------------||-----------|-------------| 


   Chorus 
    A5      G5A5             A5G5  E5       F5E5 
    Gtr II 
    H    Q  E E   +E  E H    E E   H    E E E E   +E  E H    Q 
||--------------|----------------|--------------|----------------| 
||o-------------|----------------|--------------|----------------| 
||--------------|----------------|--------------|----------------| 
||--7----7--5-7-|-(7)--------7s5-|-2----2-2-3-2-|-(2)--------2---| 
||o-7----7--5-7-|-(7)--------7s5-|-2----2-2-3-2-|-(2)--------2---| 
||--5----5--3-7-|-(7)--------7s5-|-0----0-0-1-0-|-(0)--------0---| 


  A5      G5A5             A5G5  E5       F5   E5 
  H    Q  E E   +E  E H    E E   H    E E Q    Q  Q  E E E E 
|-------------|----------------|-------------|---------------| 
|-------------|----------------|-------------|---------------| 
|-------------|----------------|-------------|---------------| 
|-7----7--5-7-|-(7)--------7s5-|-2----2-2-3--|-2-------2-2-2-| 
|-7----7--5-7-|-(7)--------7s5-|-2----2-2-3--|-2-------2-2-2-| 
|-5----5--3-5-|-(5)--------5s3-|-0----0-0-1--|-0-------0-0-0-| 


  F5       E5F5                   G5       F5G5               F5 
  H    E E E E   +E  H    E E E   H    E E E E   +E  H    E E E 
|--------------|----------------|--------------|----------------| 
|--------------|----------------|--------------|----------------| 
|--------------|----------------|--------------|----------------| 
|-3----3-3-2-3-|-(3)------3-3-3-|-5----5-5-3-5-|-(5)------5-5-3-| 
|-3----3-3-2-3-|-(3)------3-3-3-|-5----5-5-3-5-|-(5)------5-5-3-| 
|-1----1-1-0-1-|-(1)------1-1-1-|-3----3-3-1-3-|-(3)------3-3-1-| 


  E5       F5E5           G5  F5  E5       F5 
                                                                 > 
  H    E E E E   +E  H    E E E   H    E E E E   +W             +W 
|--------------|----------------|--------------|-------------||--------| 
|--------------|----------------|--------------|------------o||--------| 
|--------------|----------------|--------------|-------------||--------| 
|-2----2-2-3-2-|-(2)------5-5-3-|-2----2-2-3-2-|-(2)---------||-(2)----| 
|-2----2-2-3-2-|-(2)------5-5-3-|-2----2-2-3-2-|-(2)--------o||-(2)----| 
|-0----0-0-1-0-|-(0)------3-3-1-|-0----0-0-1-0-|-(0)---------||-(0)----| 


 Outro - Guitar Solo 
  Q=125 
                        A5 
 4/4 
    Gtr II 
                               PM--|                 PM---| 
  W                       H    E E E E    +Q.     E  Q     Q 
|---------------------|----------------|------------------------| 
|---------------------|----------------|------------------------| 
|---------------------|----------------|------------------------| 
|---------------------|---7----7-7-7-7-|--(7)--------7-----7----| 
|---------------------|---7----7-7-7-7-|--(7)--------7-----7----| 
|---------------------|---5----5-5-5-5-|--(5)--------5-----5----| 
| 
|   Gtr III 
|                         ~~~~~~~~~~~~~~~~~~~~ 
| Q  E  E  E  E  E  E     W               +Q   E  E  E  E  E  E 
|---------------------|-/12------------|-(12)-------------------| 
|---------10-12-13p10-|----------------|------------10-12-13p10-| 
|------/9-------------|----------------|---------/9-------------| 
|---------------------|----------------|------------------------| 
|---------------------|----------------|------------------------| 
|---------------------|----------------|------------------------| 


  D5 
             PM--|                PM---| 
    H        E E E E    +Q.     E Q     Q 
|--------------------|------------------------| 
|--------------------|------------------------| 
|---7--------7-7-7-7-|--(7)-------7-----7-----| 
|---7--------7-7-7-7-|--(7)-------7-----7-----| 
|---5--------5-5-5-5-|--(5)-------5-----5-----| 
|--------------------|------------------------| 
| 
|            ~~~~~~~~~~~~~~~ 
|   Q.    E  H          +Q   E  E E  E  E E 
|-/15----13-13-------|-(13)-------------------| 
|--------------------|------------8-10-12p8---| 
|--------------------|---------/7-------------| 
|--------------------|------------------------| 
|--------------------|------------------------| 
|--------------------|------------------------| 


  G5 
         PM--|                PM---| 
    H    E E E E    +Q.     E Q     Q 
|----------------|----------------------| 
|----------------|----------------------| 
|----------------|----------------------| 
|---5----5-5-5-5-|--(5)-------5-----5---| 
|---5----5-5-5-5-|--(5)-------5-----5---| 
|---3----3-3-3-3-|--(3)-------3-----3---| 
| 
|   ~~~~~~~~~~~~~~~~~~~~ 
|   W               +Q   E  E E  E  E E 
|-/10------------|-(10)-----------------| 
|----------------|------------8-10-12p8-| 
|----------------|---------/7-----------| 
|----------------|----------------------| 
|----------------|----------------------| 
|----------------|----------------------| 


  C5 
             PM--|                PM--| 
    H        E E E E    +Q.     E Q    Q 
|--------------------|---------------------| 
|--------------------|---------------------| 
|---5--------5-5-5-5-|--(5)-------5----5---| 
|---5--------5-5-5-5-|--(5)-------5----5---| 
|---3--------3-3-3-3-|--(3)-------3----3---| 
|--------------------|---------------------| 
| 
|   ~~~~     ~~~~~~~~~~~~~~~ 
|   Q.    E  H          +Q   E  E E E  E E 
|-/13----12-12-------|-(12)----------------| 
|--------------------|------------6-8-10p6-| 
|--------------------|---------/5----------| 
|--------------------|---------------------| 
|--------------------|---------------------| 
|--------------------|---------------------| 


  F5                                   D5 
        PM--|               PM--|                 PM--|               PM-| 
   H    E E E E   +Q.     E Q    Q       H        E E E E    +Q.   E  Q  Q 
|---------------|--------------------|--------------------|-------------------| 
|---------------|--------------------|--------------------|-------------------| 
|---------------|--------------------|---7--------7-7-7-7-|--(7)------7--7----| 
|--3----3-3-3-3-|-(3)-------3----3---|---7--------7-7-7-7-|--(7)------7--7----| 
|--3----3-3-3-3-|-(3)-------3----3---|---5--------5-5-5-5-|--(5)------5--5----| 
|--1----1-1-1-1-|-(1)-------1----1---|--------------------|-------------------| 
| 
|  ~~~~~~~~~~~~~~~~~~~                   ~~~~     ~~~~~~~~~~~~~~~ 
|  W              +Q   E  E E E  E E     Q.    E  H          +H       Q  E  E 
|-/8------------|-(8)----------------|-/12----10-10-------|-(10)-----/8--7----| 
|---------------|-----------6-8-10p6-|--------------------|----------------10-| 
|---------------|--------/5----------|--------------------|-------------------| 
|---------------|--------------------|--------------------|-------------------| 
|---------------|--------------------|--------------------|-------------------| 
|---------------|--------------------|--------------------|-------------------| 


  E5 
       PM--|                  PM--| 
  H    E E E E   +Q.       E  Q    Q 
|--------------|-----------------------| 
|--------------|-----------------------| 
|--------------|-----------------------| 
|-2----2-2-2-2-|-(2)----------2----2---| 
|-2----2-2-2-2-|-(2)----------2----2---| 
|-0----0-0-0-0-|-(0)----------0----0---| 
| 
| ~ 
| W               E   E  E E  E E  E E 
|--------------|--------10---12---10---| 
|-9------------|-----/9----9----9----9-| 
|--------------|-----------------------| 
|--------------|-----------------------| 
|--------------|-----------------------| 
|--------------|-----------------------| 


  A5 
             PM--| 
   H         E E E E    +Q.     E  Q     Q 
|--------------------|------------------------| 
|--------------------|------------------------| 
|--------------------|------------------------| 
|--7---------7-7-7-7-|--(7)--------------7----| 
|--7---------7-7-7-7-|--(7)--------------7----| 
|--5---------5-5-5-5-|--(5)--------------5----| 
| 
|            ~~~~~~~~~~~~~~~ 
|  E  Q   E  H          +Q   E  E  E  E  E  E 
|--------------------|------------------------| 
|-10s12--10-10-------|-(10)-------10-12-13p10-| 
|--------------------|---------/9-------------| 
|--------------------|------------------------| 
|--------------------|------------------------| 
|--------------------|------------------------| 


  A5 
        PM--|                 PM---| 
   H    E E E E    +Q.     E  Q     Q 
|---------------|------------------------| 
|---------------|------------------------| 
|---------------|------------------------| 
|--7----7-7-7-7-|--(7)--------7-----7----| 
|--7----7-7-7-7-|--(7)--------7-----7----| 
|--5----5-5-5-5-|--(5)--------5-----5----| 
| 
|  ~~~~~~~~~~~~~~~~~~~~ 
|  W               +Q   E  E  E  E  E  E 
|-12------------|-(12)-------------------| 
|---------------|------------10-12-13p10-| 
|---------------|---------/9-------------| 
|---------------|------------------------| 
|---------------|------------------------| 
|---------------|------------------------| 


  D5 
          PM--|                       PM---| 
    H     E E  E        E   +Q.    E  Q     Q 
|-------------------------|---------------------| 
|-------------------------|---------------------| 
|---7-----7-7--7--------7-|-(7)-------7-----7---| 
|---7-----7-7--7--------7-|-(7)-------7-----7---| 
|---5-----5-5--5--------5-|-(5)-------5-----5---| 
|-------------------------|---------------------| 
| 
|   ~~~~                     ~~~ 
|   H.         T  T  E.      Q.    E  E  E  E E 
|-/15---------13h15-12----|-13----12-12S10-10S8-| 
|-------------------------|---------------------| 
|-------------------------|---------------------| 
|-------------------------|---------------------| 
|-------------------------|---------------------| 
|-------------------------|---------------------| 


  G5 
          PM--|               PM---| 
  H       E E E E   +Q.     E Q     Q 
|-----------------|---------------------| 
|-----------------|---------------------| 
|-----------------|---------------------| 
|-5-------5-5-5-5-|-(5)-------5-----5---| 
|-5-------5-5-5-5-|-(5)-------5-----5---| 
|-3-------3-3-3-3-|-(3)-------3-----3---| 
| 
|     ~~~~~~~~~~~~~~~~~~ 
| E E H.            +Q   E  E E  E  E E 
|-8S7-7-----------|-(7)-----------------| 
|-----------------|-----------8-10-12p8-| 
|-----------------|--------/7-----------| 
|-----------------|---------------------| 
|-----------------|---------------------| 
|-----------------|---------------------| 


  C5 
             PM--|                    PM---| 
    H        E E E E    +Q.        E  Q     Q 
|--------------------|--------------------------| 
|--------------------|--------------------------| 
|---5--------5-5-5-5-|--(5)-----------5-----5---| 
|---5--------5-5-5-5-|--(5)-----------5-----5---| 
|---3--------3-3-3-3-|--(3)-----------3-----3---| 
|--------------------|--------------------------| 
| 
|   ~~~~ 
|   Q.    E  H          +E   E  E  E  E  E  E E 
|-/13----12-12-------|-(12)-10-10---------------| 
|--------------------|------------13-13S12-12s8-| 
|--------------------|--------------------------| 
|--------------------|--------------------------| 
|--------------------|--------------------------| 
|--------------------|--------------------------| 


  F5 
                PM--|                PM--| 
   H            E E E E    +Q.     E Q    Q 
|-----------------------|---------------------| 
|-----------------------|---------------------| 
|-----------------------|---------------------| 
|--3------------3-3-3-3-|--(3)-------3----3---| 
|--3------------3-3-3-3-|--(3)-------3----3---| 
|--1------------1-1-1-1-|--(1)-------1----1---| 
| 
|               ~~~~~~~~~~~~~~~ 
|  Q.      S S  H          +Q   E  E E E  E E 
|-----------------------|---------------------| 
|-10b12r==10p8-10-------|-(10)-------6-8-10p6-| 
|-----------------------|---------/5----------| 
|-----------------------|---------------------| 
|-----------------------|---------------------| 
|-----------------------|---------------------| 


  D5 
             PM--|              PM-| 
    H        E E E E    +Q.   E Q  Q 
|--------------------|-----------------------| 
|--------------------|-----------------------| 
|---7--------7-7-7-7-|--(7)-----7--7---------| 
|---7--------7-7-7-7-|--(7)-----7--7---------| 
|---5--------5-5-5-5-|--(5)-----5--5---------| 
|--------------------|-----------------------| 
| 
|   ~~~~     ~~~~~~~~~~~~~~~ 
|   Q.    E  H          +H      Q  T T S  E 
|-/12----10-10-------|-(10)-----8--7h8p7-----| 
|--------------------|-------------------10--| 
|--------------------|-----------------------| 
|--------------------|-----------------------| 
|--------------------|-----------------------| 
|--------------------|-----------------------| 


  E5 
       PM--|      ~~~ 
  H    E E E E   +Q.       E Q        Q 
|--------------|--------------------------| 
|--------------|--------------------------| 
|--------------|--------------------------| 
|-2----2-2-2-2-|-(2)---------2--------2---| 
|-2----2-2-2-2-|-(2)---------2--------2---| 
|-0----0-0-0-0-|-(0)---------0--------0---| 
| 
| ~ 
| W               E   E  E E E T T S  E E 
|--------------|-----------7-8-7h8p7------| 
|-9------------|-----/9-10-----------10-9-| 
|--------------|--------------------------| 
|--------------|--------------------------| 
|--------------|--------------------------| 
|--------------|--------------------------| 


  A5 
              PM--|                            PM---| 
   H          E E E E    +Q.     E             Q     Q 
|---------------------|------------------------------------| 
|---------------------|------------------------------------| 
|---------------------|------------------------------------| 
|--7----------7-7-7-7-|--(7)-------------------7-----7-----| 
|--7----------7-7-7-7-|--(7)-------------------7-----7-----| 
|--5----------5-5-5-5-|--(5)-------------------5-----5-----| 
| 
|             ~~~~~~~~~~~~~~~ 
|                                    |--3--| 
|  Q.      E  H          +Q.    +S   T  T  T   E  E  E  E 
|---------------------|-------------------13-/17-15-13-12--| 
|-10b12r==10-10-------|-(10)---(10)----15------------------| 
|---------------------|-------------14---------------------| 
|---------------------|------------------------------------| 
|---------------------|------------------------------------| 
|---------------------|------------------------------------| 


  D5 
             PM--|                    PM---| 
   H         E E E E    +Q.        E  Q     Q 
|--------------------|---------------------------| 
|--------------------|---------------------------| 
|--7---------7-7-7-7-|--(7)-----------7-----7----| 
|--7---------7-7-7-7-|--(7)-----------7-----7----| 
|--5---------5-5-5-5-|--(5)-----------5-----5----| 
|--------------------|---------------------------| 
| 
|            ~~~~~~~~~~~~~~~ 
|  E  Q   E  H          +E   E  E  E  E  E  E  E 
|-13s15--13-13-------|-(13)-12-12S10-10----------| 
|--------------------|------------------13-13S12-| 
|--------------------|---------------------------| 
|--------------------|---------------------------| 
|--------------------|---------------------------| 
|--------------------|---------------------------| 


  G5 
                 PM--|                                    PM---| 
   H             E E E E    +Q.                 E         Q     Q 
|------------------------|-------------------------------------------| 
|------------------------|-------------------------------------------| 
|------------------------|-------------------------------------------| 
|--5-------------5-5-5-5-|--(5)---------------------------5-----5----| 
|--5-------------5-5-5-5-|--(5)---------------------------5-----5----| 
|--3-------------3-3-3-3-|--(3)---------------------------3-----3----| 
| 
|                ~~~~~~~~~~~~~~~ 
|                                      |--3--|  |--3--| 
|  Q.      S  S  H          +E   S  S  S  S  S  S  S  S   E  E  E  E 
|------------------------|---------------------------12-/15-13-12-10-| 
|-12b13r==12p10-12-------|-(12)-12----------------12h================| 
|------------------------|---------12----------12--------------------| 
|------------------------|------------14p10-14-----------------------| 
|------------------------|-------------------------------------------| 
|------------------------|-------------------------------------------| 


  C5 
             PM--|                    PM---| 
   H         E E E E    +Q.        E  Q     Q 
|--------------------|--------------------------| 
|--------------------|--------------------------| 
|--5---------5-5-5-5-|--(5)-----------5-----5---| 
|--5---------5-5-5-5-|--(5)-----------5-----5---| 
|--3---------3-3-3-3-|--(3)-----------3-----3---| 
|--------------------|--------------------------| 
| 
|            ~~~~~~~~~~~~~~~ 
|  E  Q   E  H          +E   E  E  E  E  E  E E 
|-12s13--12-12-------|-(12)-10-10---------------| 
|--------------------|------------13-13-12-12s8-| 
|--------------------|--------------------------| 
|--------------------|--------------------------| 
|--------------------|--------------------------| 
|--------------------|--------------------------| 


  F5 
                PM--|                                 PM---| 
   H            E E E E    +Q.              E         Q     Q 
|-----------------------|---------------------------------------| 
|-----------------------|---------------------------------------| 
|-----------------------|---------------------------------------| 
|--3------------3-3-3-3-|--(3)------------------------3-----3---| 
|--3------------3-3-3-3-|--(3)------------------------3-----3---| 
|--1------------1-1-1-1-|--(1)------------------------1-----1---| 
| 
|               ~~~~~~~~~~~~~~~ 
|                                    |-3--| |--3--| 
|  Q.      S S  H          +E   S S  S S  S S  S  S   E  E  E E 
|-----------------------|------------------------12-/13-12-10-8-| 
|-10b12r==10p8-10-------|-(10)-10-------------10h===============| 
|-----------------------|---------9---------9-------------------| 
|-----------------------|-----------10-7h10---------------------| 
|-----------------------|---------------------------------------| 
|-----------------------|---------------------------------------| 


  D5 
             PM--|                PM---| 
   H         E E E E    +Q.     E Q     Q 
|--------------------|----------------------| 
|--------------------|----------------------| 
|--7---------7-7-7-7-|--(7)-------7-----7---| 
|--7---------7-7-7-7-|--(7)-------7-----7---| 
|--5---------5-5-5-5-|--(5)-------5-----5---| 
|--------------------|----------------------| 
| 
|  E  Q   E  H          +E  E E E E  E  E E 
|-10s12--10-10-------|-(10)-8-8-7-7---------| 
|--------------------|--------------10-10s9-| 
|--------------------|----------------------| 
|--------------------|----------------------| 
|--------------------|----------------------| 
|--------------------|----------------------| 


  E5 
       PM--|                PM------| 
  H    E E E E   +Q.      E Q        Q 
|--------------|-------------------------| 
|--------------|-------------------------| 
|--------------|-------------------------| 
|-2----2-2-2-2-|-(2)--------2--------2---| 
|-2----2-2-2-2-|-(2)--------2--------2---| 
|-0----0-0-0-0-|-(0)--------0--------0---| 
| 
| ~ 
| W               E  E  E E E T T S  E E 
|--------------|----------7-8-7h8p7------| 
|-9------------|-----9-10-----------10-9-| 
|--------------|-------------------------| 
|--------------|-------------------------| 
|--------------|-------------------------| 
|--------------|-------------------------| 


  A5 
              PM--|       ~~~~ 
   H          E E E E    +Q.   E Q   E  E 
|---------------------|-------------------| 
|---------------------|--------------8s10-| 
|---------------------|-------------------| 
|--7----------7-7-7-7-|--(7)-----7--------| 
|--7----------7-7-7-7-|--(7)-----7--------| 
|--5----------5-5-5-5-|--(5)-----5--------| 
| 
|             ~~~~~~~~~~~~~~~ 
|  Q.      E  H          +H.         E  E 
|---------------------|-------------------| 
|-10b12r==10-10-------|-(10)--------10s13-| 
|---------------------|-------------------| 
|---------------------|-------------------| 
|---------------------|-------------------| 
|---------------------|-------------------| 


   Harmony Solo 
    A 
      ~~~~     ~~~~~~~~~~~~ 
      Q.    E  H       +E   E  E  E   E   E  E  E 
||---------12-12----|-(12)-13p12-13-{13}-13p12-13-| 
||o-/10-------------|-----------------------------| 
||------------------|-----------------------------| 
||------------------|-----------------------------| 
||o-----------------|-----------------------------| 
||------------------|-----------------------------| 
| 
|     ~~~~     ~~~~~~~~~~~~ 
|     Q.    E  H       +E   E  E  E   E   E  E  E 
||---------15-15----|-(15)-17p15-17-{17}-17p15-17-| 
||o-/13-------------|-----------------------------| 
||------------------|-----------------------------| 
||------------------|-----------------------------| 
||o-----------------|-----------------------------| 
||------------------|-----------------------------| 


  1.                                                2. 
  E                                                  E 
    ~~~~     ~~~~~~~~~~~~                              ~~~~     ~~~~~~ 
    Q.    E  H       +E   E     E  E  Q       Q        Q.    E  H 
|--------12-12----|-(12)-12b14r12-10--------------||--------12-12----| 
|--/9-------------|------------------12b14r==12--o||--/9-------------| 
|-----------------|-------------------------------||-----------------| 
|-----------------|-------------------------------||-----------------| 
|-----------------|------------------------------o||-----------------| 
|-----------------|-------------------------------||-----------------| 
| 
|   ~~~~     ~~~~~~~~~~~~                              ~~~~     ~~~~~~ 
|   Q.    E  H       +E   E     E  E  Q       Q        Q.    E  H 
|--------15-15----|-(15)-15b17r15-13--------------||--------15-15----| 
|-/12-------------|------------------15pb17r=15--o||-/12-------------| 
|-----------------|-------------------------------||-----------------| 
|-----------------|-------------------------------||-----------------| 
|-----------------|------------------------------o||-----------------| 
|-----------------|-------------------------------||-----------------| 


 ~~~~~~ 
   +H                              H 
|-(12)--------------------------------------------------------| 
|-------------------------------------------------------------| 
|-------------------------------------------------------------| 
|-------------------------------------------------------------| 
|-------------------------------------------------------------| 
|-------------------------------------------------------------| 
| 
|~~~~~~ 
|       |--3--|  |--3--|  |--3--|  |--3--|  |--3--| 
|  +E   S  S  S  S  S  S  S  S  S  S  S  S  S  S  S  S S  S s 
|-(15)-15h17p15-----------------------------------------------| 
|---------------17p15-----------------------------------------| 
|---------------------16p14p12----14p12-------12--------------| 
|------------------------------14-------14p12----14p10-7h10-7-| 
|-------------------------------------------------------------| 
|-------------------------------------------------------------| 


    A 
      ~~~~     ~~~~~~~~~~~~ 
      Q.    E  H       +E   E  E  E   E   E  E  E 
||------------------|-----------------------------| 
||o-----------------|-----------------------------| 
||----------9--9----|--(9)-10--9-10-{10}-10--9-10-| 
||---/7-------------|-----------------------------| 
||o-----------------|-----------------------------| 
||------------------|-----------------------------| 
| 
|     ~~~~     ~~~~~~~~~~~~ 
|     Q.    E  H       +E   E  E  E   E   E  E  E 
||------------------|-----------------------------| 
||o-----------------|-----------------------------| 
||---------12-12----|-(12)-14-12-14-{14}-14-12-14-| 
||--/10-------------|-----------------------------| 
||o-----------------|-----------------------------| 
||------------------|-----------------------------| 


  E 
   ~~~      ~~~~~~~~~~~~ 
   Q.    E  H       +E   E     E  E  Q       Q 
|----------------|--------------------------------|| 
|----------------|-------------------------------o|| 
|--------9--9----|--(9)--9b11r=9--7---------------|| 
|-/6-------------|-------------------9b11r===9----|| 
|----------------|-------------------------------o|| 
|----------------|--------------------------------|| 
| 
|  ~~~      ~~~~~~~~~~~~ 
|  Q.    E  H       +E   E     E  E  Q       Q 
|----------------|--------------------------------|| 
|----------------|-------------------------------o|| 
|-------12-12----|-(12)-12b14r12-10---------------|| 
|-/9-------------|------------------12pb14r=12----|| 
|----------------|-------------------------------o|| 
|----------------|--------------------------------|| 


    A 
      ~~~~     ~~~~~~~~~~~~ 
      Q.    E  H       +E   E  E  E   E   E  E  E 
||---------12-12----|-(12)-13-12-13-{13}-13-12-13-| 
||o-/10-------------|-----------------------------| 
||------------------|-----------------------------| 
||------------------|-----------------------------| 
||o-----------------|-----------------------------| 
||------------------|-----------------------------| 
| 
|     ~~~~     ~~~~~~~~~~~~ 
|     Q.    E  H       +E   E  E  E   E   E  E  E 
||---------15-15----|-(15)-17-15-17-{17}-17-15-17-| 
||o-/13-------------|-----------------------------| 
||------------------|-----------------------------| 
||------------------|-----------------------------| 
||o-----------------|-----------------------------| 
||------------------|-----------------------------| 


 1. 
  E 
    ~~~~     ~~~~~~~~~~~~ 
    Q.    E  H       +E   E     E  E  Q       Q 
|--------12-12----|-(12)-12b14r12-10---------------|| 
|--/9-------------|------------------12b14r==12---o|| 
|-----------------|--------------------------------|| 
|-----------------|--------------------------------|| 
|-----------------|-------------------------------o|| 
|-----------------|--------------------------------|| 
| 
|   ~~~~     ~~~~~~~~~~~~ 
|   Q.    E  H       +E   E     E  E  Q       Q 
|--------15-15----|-(15)-15b17r15-13---------------|| 
|-/12-------------|------------------15pb17r=15---o|| 
|-----------------|--------------------------------|| 
|-----------------|--------------------------------|| 
|-----------------|-------------------------------o|| 
|-----------------|--------------------------------|| 


  2.              H.=H                          Q= 
  E 
    ~~~~     ~~~~~~~~~~~~ 
    Q.    E  H       +E   E     E  E  Q       Q 
|--------12-12----|-(12)-12b14r12-10-------------| 
|--/9-------------|------------------12b14r==12--| 
|-----------------|------------------------------| 
|-----------------|------------------------------| 
|-----------------|------------------------------| 
|-----------------|------------------------------| 
| 
|   ~~~~     ~~~~~~~~~~~~ 
|   Q.    E  H       +E   E     E  E  Q       Q 
|--------15-15----|-(15)-15b17r15-13-------------| 
|-/12-------------|------------------15pb17r=15--| 
|-----------------|------------------------------| 
|-----------------|------------------------------| 
|-----------------|------------------------------| 
|-----------------|------------------------------| 


 9H=H                       Q=125 
    ~~~~~~~~~~~~~~~~ 
    W           +H      Q   Q 
|------------|------------------*| 
|--10--------|-(10)----10\------*| 
|------------|------------------*| 
|------------|------------------*| 
|------------|------------------*| 
|------------|------------------*| 
| 
|   ~~~~~~~~~~~~~~~~ 
|   W           +H      Q   Q 
|------------|------------------*| 
|--13--------|-(13)----13\------*| 
|------------|------------------*| 
|------------|------------------*| 
|------------|------------------*| 
|------------|------------------*|
		  

auto scroll beats size up size down change color hide chords drawings
tab show chords e-chords YouTube Clip e-chords hide all tabs e-chords go to top tab

share