Lungfish

Indivisible

Lungfish

tabs

by  GUSTSILVA

save to print version add songbook text version e-mail correct tuner
chordsukulelecavacokeyboardtabbassdrumsharmonicaflute Guitar Pro
close

there isn't a video lesson for this song

chords

Indivisible

	  		 

Tuning:DADGBe 

Part 1 - verse 
e|---------------------------------------------------------------------------| 
B|---------------------------------------------------------------------------| 
G|-5---5--0---0--2---0--2b0--------------------------------------------------| 
D|-0--(0)-0--(0)-0--(0)-(0)--------------------------------------------------| 
A|---------------------------------------------------------------------------| 
D|---------------------------------------------------------------------------| 

Part 2 - Chorus 
e|---------------------------------------------------------------------------| 
B|---------------------------------------------------------------------------| 
G|-5---5--7---7--------------------------------------------------------------| 
D|-0--(0)-0--(0)-------------------------------------------------------------| 
A|---------------0---0-------------------------------------------------------| 
D|---------------0---0--12--12--12--12---------------------------------------| 

Listen to the song to know when to play the verse/Chorus. 

But that's all there is to the song, enjoy! 
		  

auto scroll beats size up size down change color hide chords drawings
tab show chords e-chords YouTube Clip e-chords hide all tabs e-chords go to top tab

share