Lund

Hallowed

Lund

tabs

by  EDSOOLIVEIRA

save to print version add songbook text version e-mail correct tuner
chordsukulelecavacokeyboardtabbassdrumsharmonicaflute Guitar Pro
close

there isn't a video lesson for this song

chords

Hallowed

	  		Repeat Entire Song 

e|-----------------------|------------------------| 
B|-1---1---0--1--1---1---|-0--1--1---1---0--1--1--| 
G|--2---2---------2---2--|--------2---2---------2-|  
D|-----------------------|------------------------|  
A|---0---0---------0---0-|---------0---0----------| 
E|-----------------------|------------------------| 

e|-----------------------|------------------------| 
B|-1---0--1--1--1---0--1-|-1--1---0--1--1--1------| 
G|--2---------0--0-------|--0--0---------0--0-----|  
D|-----------------------|------------------------|  
A|0--0---------3--3------|---3--3---------3--3----| 
E|-----------------------|------------------------| 
		  

See also:

tabs Deep Purple - Burn tabs Deep Purple - No No No tabs Deep Purple - Smoke on the water(ver. 2) tabs Deep Purple - Time To Kill tabs Deep Purple - Smoke on The Water (ver.3) tabs Deep Purple - Fireball
e-chords

Other versions:

tabs Edguy - Hallowed tabs Lund - Hallowed tabs Cradle of Filth - Hallowed Be Thy Name tabs Iron Maiden - Hallowed Be Thy Name tabs Cradle of Filth - Hallowed Be Thy Name (ver. 2) tabs Cradle of Filth - Hallowed Be Thy Name (ver. 3)
auto scroll beats size up size down change color hide chords drawings
tab show chords e-chords YouTube Clip e-chords hide all tabs e-chords go to top tab

share