Lunatic Soul

Suspended In Whiteness

Lunatic Soul

tabs

by  ABELAMIN

save to print version add songbook text version e-mail correct tuner
chordsukulelecavacokeyboardtabbassdrumsharmonicaflute Guitar Pro
close

there isn't a video lesson for this song

chords

Suspended In Whiteness

	  		
Intro and Verse 

e|----7-7-7----7----7--7---7-----5-5-5---5----5---5--5--------------------| 
B|------------------------------------------5-----------------------------| 
G|----------------9-------------------------------------------------------| 
D|------------------------------------------------------------------------| 
A|---0-0-0---0---0---0---0--0---------------------------------------------| 
E|------------------------------0-0-0---0--0----0---0---------------------| 


Solo riffs 

e|------------------------------------------------------------------------| 
B|--10--12----------------------------------------------------------------| 
G|---------9--------------------------------------------------------------| 
D|------------------------------------------------------------------------| 
A|------------------------------------------------------------------------| 
E|------------------------------------------------------------------------| 

e|------------------------------------------------------------------------| 
B|--7-8-10----------------------------------------------------------------| 
G|------------------------------------------------------------------------| 
D|------------------------------------------------------------------------| 
A|------------------------------------------------------------------------| 
E|------------------------------------------------------------------------| 

e|------------------------------------------------------------------------| 
B|------------------------------------------------------------------------| 
G|------10p9h10p9h10p9----------------------------------------------------| 
D|------------------------------------------------------------------------| 
A|------------------------------------------------------------------------| 
E|------------------------------------------------------------------------| 

 
		  

See also:

tabs Deep Purple - Perfect Strangers tabs Deep Purple - Smoke on the water (intro) tabs Ira! - Nucleo De Base tabs Deep Purple - Smoke on the Water (solo) tabs Ira! - Flerte Fatal (intro e solo) tabs Deep Purple - Smoke On The Water
e-chords

Other versions:

tabs Lunatic Soul - Suspended In Whiteness
auto scroll beats size up size down change color hide chords drawings
tab show chords e-chords YouTube Clip e-chords hide all tabs e-chords go to top tab

share