Lunatic Soul

Summerland (acoustic)

Lunatic Soul

tabs

by  RENEJUNIOR

save to print version add songbook text version e-mail correct tuner
chordsukulelecavacokeyboardtabbassdrumsharmonicaflute Guitar Pro
close

there isn't a video lesson for this song

chords

Summerland (acoustic)

	  		

Tuning:Drop C# 
      
     Main Part 
D#|-------------------------|-----------0---------------------------------------| 
A#|-----------------3-------|---------------------------------------------------| 
F#|--------2-----2-----2----|--------2-------------2----------------------------| 
C#|-----------5-----------5-|-----------------5---------------------------------| 
G#|-----0-------------------|-----0---------------------------------------------| 
C#|--0----------------------|--0-----------0-----0------------------------------| 

     the bridge-y bit 
|---------------------------------------------------------------------------| 
|---------------------------------------------------------------------------| 
|---------2---2/4-----5-----0-----0--0/2------2-----------------------------| 
|---------------------------------------------------------------------------| 
|------0----0------0-----0-----0-----------0--------------------------------| 
|---0-----------------------------------------------------------------------| 

    Verses    Repeat this 
|----------------------------|-----------0-----------------------------------| 
|-------------------3--------|-----------------------------------------------| 
|---------2-----2------2-----|--------2--------------2-----------------------| 
|------------5------------5--|-----------------5-----------------------------| 
|------0---------------------|-----0-----------------------------------------| 
|---0------------------------|--0-----------0-----0--------------------------| 

              The lyrics are in paired lines, like couplets. Play this every second 
              line. To get the rhythm, I suggest listening to the part in which the  
              guitar replaces the piano, after first Chorus. 
|---------------------------------------------------------------------------| 
|----------------3----------------------------------------------------------| 
|---------2---------2-----2-------------------------------------------------| 
|------0-----0---------0----------------------------------------------------| 
|---3-----------------------------------------------------------------------| 
|---------------------------------------------------------------------------| 

                 The preChorus (followed by bridge) 
|---------------------------------------------------------------------------| 
|---------------3-----------------------3-----------------------------------| 
|---------2--------2-----2--------2--------2-----2--------------------------| 
|------0-----0--------0--------0-----0--------0-----------------------------| 
|---0-----------------------------------------------------------------------| 
|---------------------------5-----------------------------------------------| 

              The Chorus Chords (AM, Cm, C#m, F#5, AM) 
|----1----4----5----5----1--------------------------------------------------| 
|----3----5----6----8----3--------------------------------------------------| 
|----3----6----7----7----3--------------------------------------------------| 
|----3----6----7----5----3--------------------------------------------------| 
|----1----4----5----5----1--------------------------------------------------| 
|-------------------5-------------------------------------------------------| 

              The Chorus Tabs 
|--------------------6---------|-----------------8----------------------------| 
|----------------6-------------|-----------5/8-----------10-------------------| 
|------------7---------------7-|-------6-------------9------------------------| 
|--------8---------------8-----|----------------------------------------------| 
|------------------------------|---4------------------------------------------| 
|----8-------------------------|----------------------------------------------| 

|-----------------------------|--------5--------------------------------------| 
|--------6-------6---6--------|------------8-------5--------------------------| 
|--------7-------7---7--------|----------------7-----------5------------------| 
|-----------------------------|------------------------7----------------------| 
|----5-------5----------------|-----------------------------------------------| 
|-----------------------------|----5------------------------------------------| 

           This rhythm isn't set in stone 
|-------------------------------------------------------------------------| 
|----3------3-----------3-------3-----------------------------------------| 
|----3------3-----------3-------3-----------------------------------------| 
|-------------------------------------------------------------------------| 
|--------1------1---1-------1---------------------------------------------| 
|-------------------------------------------------------------------------| 



| /   slide up 
| \   slide down 
| h   hammer-on 
| p   pull-off 
| ~   vibrato 
| +   harmonic 
| x   Mute note 
| b   Bend 
| pb  Pre-bend 
| br  Bend release 
| pbr Pre-bend release 
| brb Bend release bend 

************************************ 
		  

See also:

tabs Deep Purple - Deep Purple - Smoke On The Water tabs Ira! - Vitrine Viva tabs Ira! - Eu Quero Sempre Mais (Com Pitty, intro) tabs Deep Purple - Smoke On The Water (Easy Intro) tabs Deep Purple - Money Talks tabs Deep Purple - Mistreated
e-chords

Other versions:

tabs Kings X - summerland tabs Lunatic Soul - Summerland (acoustic)
auto scroll beats size up size down change color hide chords drawings
tab show chords e-chords YouTube Clip e-chords hide all tabs e-chords go to top tab

share