Luiz Marenco

Quando O Verso Vem Pras Casa

Luiz Marenco

tabs Beginner beginner

by  PHILGREY

save to print version add songbook text version e-mail correct tuner
chordsukulelecavacokeyboardtabbassdrumsharmonicaflute Guitar Pro
close

there isn't a video lesson for this song

chords

Quando O Verso Vem Pras Casa

	  		Quando o Verso Vem Pras Casa 

Tablatura por Philippe Grey 

intro: F#m C#7 D7 C#7 F#m F#7 Bm E7 A D Bm D Bm C#7 F#m 


As tablaturas são as partes da gaita adaptadas para violão. 
É só seguir a música para pegar o andamento. 

------------------------------------------- 
-9/10-9-10-9----9-10-9------12-10-9-10-9--- 
-------------11--------11------------------ 
------------------------------------------- 
------------------------------------------- 
------------------------------------------- 

-----10-11-----10-11---------------12-(12)- 
-8-9-------8-9-------8-9-12-10-(9)--------- 
------------------------------------------- 
------------------------------------------- 
------------------------------------------- 
------------------------------------------- 

------9-7--------14-12-------------------------------- 
-7-10-----10-12--------9-10-12-10-9-10-12-12/14/12-10- 
------------------------------------------------------ 
------------------------------------------------------ 
------------------------------------------------------ 
------------------------------------------------------ 

------------------ 
-9-10-12-10-12-14- 
------------------ 
------------------ 
------------------ 
------------------  

(F#m)                                 Bm 
A calma do tarumã, ganhou sombra mais copada 
   E                                A 
Pela várzea espichada com o sol da tarde caindo 
    D                            Bm C#7 
Um pañuelo maragato se abriu no horizonte 
                                        F#m 
Trazendo um novo reponte, pra um fim de tarde bem lindo 

  Bm                                E 
Daí um verso de campo se chegou na campereada 
    A                                  D 
No lombo de uma gateada frente aberta de respeito 
   Bm                             C#7 
Desencilhou na ramada, já cansado das lonjuras 
                                   F#m 
Mas estampando a figura, campeira, bem do seu jeito 

   Bm                             E 
Cevou um mate pura-folha, jujado de maçanilha 
      A                               D 
E um ventito da coxilha trouxe coplas entre as asas 
      Bm                                 C#7 
Prá querência galponeira, onde o verso é mais caseiro 
                                         F#m 
Templado a luz de candeeiro e um "quarto gordo nas brasa" 


(F#7 Bm E7 A D G#m C#7 (F#7) Bm E7 A D Bm D Bm C#7 F#m) 


F#7 Bm E7 A D G#m C#7 (F#7) 

-------------------------------------------------- 
---2-----3--2--------------2-0-------------------- 
------4-------4--2--4-4-2-------2-1-2-2-1-4-2-1--- 
-4-----------------------------------------------4 
-------------------------------------------------- 
-------------------------------------------------- 

------------ 
------------ 
-4-2-1-2-1-- 
------------ 
------------ 
------------ 

Bm E7 A D Bm D Bm C#7 F#m 

------------------------------------ 
-------2--------/7-5---------------- 
---2-4---4-2-4--------1-2-4-2-1-2-4- 
-4---------------------------------- 
------------------------------------ 
------------------------------------ 

Arpejo (D Bm - 2x / D Bm - 1x) 

------------------------------------ 
---------2-------------------------- 
-2/4-(4)---4--2-1-2-4-2-4-6--------- 
----------------------------2-3-(4)- 
------------------------------------ 
------------------------------------ 

(F#7)                                     Bm 
A mansidão da campanha traz saudades feito açoite 
       E                                      A 
Com os olhos negros de noite que ela mesmo aquerenciou 
     D                                    Bm  C#7 
E o verso que tinha sonhos prá rondar na madrugada 
                                     F#m 
Deixou a cancela encostada e a tropa se desgarrou 

     Bm                               E 
E o verso sonhou ser casa com sombra de tarumã 
    A                                    D 
Ser um galo prás manhãs, ou um gateado pra encilha 
    Bm                                 C#7 
Sonhou com os olhos da prenda vestidos de primavera 
                                 F#m 
Adormecidos na espera do sol pontear na coxilha 

   Bm                                 E 
Ficaram arreios suados e um silêncio de esporas 
    A                                    D 
Um cerne com cor de aurora queimando em fogo de chão 
  Bm                           C#7 
Uma cuia e uma bomba recostada na cambona 
                                     F#m        F#7 
E uma saudade redomona, pelos cantos do galpão 


Bm F#m C#7 F#m 

 (4x)     (4X)    (4X) 

------- ------- ------- --------- 
------- ------- ------- --------2 
-7-6-4- -6-4-2- -4-2-1- -6-5-4--4 
------- ------- ------- --------4 
------- ------- ------- --------- 
------- ------- ------- --------- 
		  

Full key step upFull key step up
Half key step upHalf key step up
Half key step downHalf key step down
Full key step downFull key step down
auto scroll beats size up size down change color hide chords drawings
tab show chords e-chords YouTube Clip e-chords hide all tabs e-chords go to top tab

share