Ludwig van Beethoven

Himno De La Alegria Tab

Ludwig van Beethoven

Difficulty: ExpertExpert

by pollo+punk

tuner correct add songbook print version text version save to e-mail
chordsukulelecavacokeyboardtabbassdrumsharmonicsflute Guitar Pro
close

there isn't a video lesson for this song

request
chords

Himno De La Alegria

  		||-0--0--1--3-|-3--1--0----|----------0-|-0----------|| 
||------------|----------3-|-1--1--3----|------3-----|| 
||------------|------------|------------|------------|| 
||------------|------------|------------|------------|| 
||------------|------------|------------|------------|| 
||------------|------------|------------|------------|| 


||-0--0--1--3-|-3--1--0----|----------0-|------------|| 
||------------|----------3-|-1--1--3----|-3----1-----|| 
||------------|------------|------------|------------|| 
||------------|------------|------------|------------|| 
||------------|------------|------------|------------|| 
||------------|------------|------------|------------|| 


||-----0-----|-0-1--0-----|-0-10------|------------|| 
||-3-----1--3-|--------1--3|---------3--|13---------|| 
||------------|------------|------------|---------0--|| 
||------------|------------|------------|------------|| 
||------------|------------|------------|------------|| 
||------------|------------|------------|------------|| 


||-0-0-1-3-|-3--1--0----|----------0-|------------|| 
||------------|----------3-|-1--1--3----|-3---1------|| 
||------------|------------|------------|------------|| 
||------------|------------|------------|------------|| 
||------------|------------|------------|------------|| 
||------------|------------|------------|------------|| 
	  

Search Paypal
auto scroll beats size up size down change color hide chords drawings
tab show chords e-chords YouTube Clip e-chords hide all tabs e-chords go to top tab

share with facebook