save to print version add songbook text version e-mail correct tuner
chordsukulelecavacokeyboardtabbassdrumsharmonicaflute Guitar Pro
close

there isn't a video lesson for this song

chords

9 Sinfonia

	  		
E|-0-0-1-3-3-1-0-----------0-0-------------------------| 
B|---------------3--1-1-3------3-3---------------------| 
G|-----------------------------------------------------| 
D|-----------------------------------------------------| 
A|-----------------------------------------------------| 
E|-----------------------------------------------------| 


E|-0-0-1-3-3-1-0------------0--------------------------| 
B|----------------3--1-1-3------3--1-1-----------------| 
G|-----------------------------------------------------| 
D|-----------------------------------------------------| 
A|-----------------------------------------------------| 
E|-----------------------------------------------------| 

       

E|-----0------0--1--0-------0-1-0---------4-5-6-7-6-5--| 
B|-3-3---1--3---------1--3--------3--1--3--------------| 
G|-----------------------------------------------------| 
D|-----------------------------------------------------| 
A|-----------------------------------------------------| 
E|-----------------------------------------------------| 

       

E|-----------------------------------------------------| 
B|-5----4-3--------------------------------------------| 
G|--5-4------------------------------------------------| 
D|-----------------------------------------------------| 
A|-----------------------------------------------------| 
E|-----------------------------------------------------| 
		  

See also:

tabs Ludwig van Beethoven - Moonlight Sonata tabs Ludwig van Beethoven - 9 Sinfonia tabs Ludwig van Beethoven - Himno De La Alegria
e-chords

Other versions:

tabs Beethoven - 9 sinfonia
auto scroll beats size up size down change color hide chords drawings
tab show chords e-chords YouTube Clip e-chords hide all tabs e-chords go to top tab

share