Love And Death

home > Love And Death

My Disaster Tab

Love And Death

Difficulty: nolevelnolevel

by aman%5Fclaudino

tuner correct add songbook print version text version save to e-mail
chordsukulelecavacokeyboardtabbassdrumsharmonicsflute Guitar Pro
chords

My Disaster

  		

I have been wanting to learn this song for a long time but was too lazy to figure out until now. 
From what I have seen there are not any tabs for this song on this website or on  
the internet at all. I figured 
it out from videos and by ear and it should be pretty close. Enjoy! 

Intro                                                 x4 
A#|--------------------------------------------------| 
F#|-7-/6--6/5---6/5--5/4---7-/6--6/5---6/5--5/4--4/3-| 
C#|-10/9--9/8---9/8--8/7---10/9--9/8---9/8--8/7--7/6-| 
G#|--------------------------------------------------| 
D#|--------------------------------------------------| 
G#|--------------------------------------------------| 

Chorus 
A#|---------------------------------------------------| 
F#|-7-/6--6/5---6/5--5/4---7-/6--6/5---6/5--5/4--4/3--| 
C#|-10/9--9/8---9/8--8/7---10/9--9/8---9/8--8/7--7/6--| 
G#|---------------------------------------------------| 
D#|---------------------------------------------------| 
G#|-----------0----------0-----------0---------------0| 

------------------------------------------------------| 
-7-/6--6/5---6/5--5/4---7-/6--6/4---------------------| 
-10/9--9/8---9/8--8/7---10/9--9/8----3-3-3-3--7-7-7-7-| 
-------------------------------------1-1-1-1--5-5-5-5-| 
-------------------------------------1-1-1-1--5-5-5-5-| 
-----------0----------0-----------0--1-1-1-1--5-5-5-5-| 


A#|--------------------------------------------------------------------------------------------| 
F#|-7-/6--6/5---6/5--5/4---7-/6--6/5---6/5--5/4--4/3---7-/6--6/5---6/5--5/4--------------------| 
C#|-10/9--9/8---9/8--8/7---10/9--9/8---9/8--8/7--7/6---10/9--9/8---9/8--8/7----3-3-3-3-3-3-3-3-| 
G#|----------------------------------------------------------------------------1-1-1-1-1-1-1-1-| 
D#|----------------------------------------------------------------------------1-1-1-1-1-1-1-1-| 
G#|-----------0----------0-----------0---------------0-----------0----------0--1-1-1-1-1-1-1-1-| 

Verse                                         x6 
A#|------------------------------------------| 
F#|------------------------------------------| 
C#|------------------------------------------| 
G#|-----8-8-8------7-7-7------4-4-4------5---| 
D#|----------------------------------------6-| 
G#|-0-0--------0-0--------0-0--------0-0-----| 

Pre-Chorus 
A#|------------------------------------| 
F#|------------------------------------| 
C#|----------------7-----------------7-| 
G#|-0-0-0-0-3-5-5--7--0-0-0-0-3-5-5--7-| 
D#|-0-0-0-0-3-5-5--6--0-0-0-0-3-5-5--5-| 
G#|-0-0-0-0-3-5-5-----0-0-0-0-3-5-5----| 

Bridge 1 
A#|----------------------| 
F#|----------------------| 
C#|----------------------| 
G#|-4-5-7-8-5--4-5-7-1-5-| 
D#|----------------------| 
G#|----------------------| 

Bridge 2                   x2 
A#|-----------------------| 
F#|-----------------------| 
C#|---5-7-10-7----5-7-3-7-| 
G#|-0-5-7-10-5--0-5-7-1-5-| 
D#|-0-3-5-8--5--0-3-5-1-5-| 
G#|-0-3-5-8--5--0-3-5-1-5-| 

Order: 
Intro 
Chorus 
Verse 
Pre-Chorus 
Chorus 
Verse 
Pre-Chorus 
Chorus  
Bridge 1 
Bridge 2 
Chorus 
Bridge 2 

********************************* 
|  / = Slide 
********************************* 
	  

Search Paypal
auto scroll beats size up size down change color hide chords drawings
tab show chords e-chords YouTube Clip e-chords hide all tabs e-chords go to top tab