Loukass

Hombre Lobo

Loukass

tabs

by  VSWORLD

save to print version add songbook text version e-mail correct tuner
chordsukulelecavacokeyboardtabbassdrumsharmonicaflute Guitar Pro
close

there isn't a video lesson for this song

chords

Hombre Lobo

(R. Villegas C. Krauss)

	  		 toda la cancion se toca con el sgte riff 

E--2--2------0------0------0---- 
B--3--3------3------3------3---- 
G--2--2------2------2------0---- 
D--0--0--0-0-0--0-0----0-0------ 
A--------3-3----2-2----1-1------ 
E------------------------------- 

esta parte se toca despues de los coros hu, he ,hu ,he 

E--2--2-2--2--1-1/5--5-5-5-5--- 
B--2--2-2--2--1-1/5--5-5-5-5--- 
G--3--3-3--3--2-2/6--6-6-6-6--- 
D--4--4-4--4--3-3/7--7-7-7-7--- 
A--4--4-4--4--3-3/7--7-7-7-7--- 
E--2--2-2--2--1-1/5--5-5-5-5--- 
HU HE HU HE YEE 

No me vez estoy aqui 
Puedes tocarme puedes sentir 
no soy ningun fantasma 
aunque a veces parezca 
Soy un hombre un lobo a veces 
vivo la luna lo que después es 
lo de antes ya no se viste 
solo creo en o que existe 

Yo quiero ahogar al tiempo 
No quiero perder el viento 
y eso me hace fuerte 
voy a agarrar mi suerte 
hu he hu he yeeee 

Yo me voe estoý aqui 
puedo tocarme puedo sentir 
no hay fantasmas 
es solo un cuento 
Todo lo que hay está en el viento 
No soy ningún fantasma 
Aunque a veces paresca 
lo de antes ya no se viste 
solo creo en lo que existe 

Yo quiero Ahogar al tiempo 
No quiero perder el viento 
Y eso me hace fuerte 
Voy a agarrar mi suerte 
hu he hu hu yyeeeee
		  

See also:

tabs Panda - Si Supieras tabs Panda - Narcisista Por Exelencia (intro) tabs Panda - Ya no Jalaba tabs Panda - Muñeca tabs Panda - Oro tabs Loukass - Feel High
e-chords

Other versions:

tabs Loukass - Hombre Lobo
auto scroll beats size up size down change color hide chords drawings
tab show chords e-chords YouTube Clip e-chords hide all tabs e-chords go to top tab

share